Sound will begin in 5 seconds

Death Metal 1 Solo

01234567891011121314151617181920212223
E
B
G
D
A
E
B
0 1 2 3 4 5 6 7 8 9 10 11 12 13 14 15 16 17 18 19 20 21 22 23
Song Science #1: How Pros Use 6 Chords to Write Hit Songs
(/) Slide Up  (\) Slide Down  (h) Hammer On  (p) Pull Off  (b) Bend (r) Release (v) Vibrato

Stave 1:

E|--------------------------------------21--------------------------15----------------------------------------------15----------------------
B|--------------------------19--20--19--------------------------14------16--------------------------------------14------16------------------
G|--------------17--18--17------------------------------12--13--------------17--------------------------12--13--------------17--------------
D|--15--16--15--------------------------------------12--------------------------17------------------12--------------------------17----------
A|----------------------------------------------12----------------------------------18----------12----------------------------------18------
E|------------------------------------------11------------------------------------------18--11------------------------------------------18--

Stave 2:

E|-------------------------------------------------------------------------14--15--16--17--7--8---------------------------------------------
B|--12--14--15--12--14--15--12--14--15--12--14--15/18--19--19--15--14--12------------------------9------------------------------------------
G|--------------------------------------------------------------------------------------------------10--------------------------------------
D|------------------------------------------------------------------------------------------------------10--11----------12--13------17--16--
A|--------------------------------------------------------------------------------------------------------------10--11----------15----------
E|------------------------------------------------------------------------------------------------------------------------------------------

Stave 3:

E|--15h16p14h17p18h19p17--------------------------------------------------21--------------------------------------12----------------------
B|--------------------------------------------------------------------21------20------------------------------12--------------------------
G|------------------------------------15--16----------------------21--------------19----------------------13------------------------------
D|--------------------------------14----------17--------------21----------------------18--------------14--------------11--12--13--14--15--
A|----------------------------13------------------18------20------------------------------17------15--------------------------------------
E|------------------------12--------------------------19--------------------------------------16------------------------------------------

Stave 4:

E|--8--8--8--8--8--9-------------------------------------------------------------------------------------------------------------
B|--------------------8--9--10--11-----------------------------------------------------------------------------------------------
G|----------------------------------9--10--11--12--------------------------------------------------------------------------------
D|-------------------------------------------------10--11--12--13----------------------------------------------------------------
A|-----------------------------------------------------------------11--12--13--14------------------------------------------------
E|---------------------------------------------------------------------------------12--11--10--10--9--0--0--0--0--0--0--0--0--0--

http://www.guitartabcreator.com
Guitar Tab Creator is intended to store guitar tab created through the tool. It currently does not support in-line text editing. Any text you place in here will be lost. If you need to comment on your tab, please use the "Tab Notes" section located below.