Sound will begin in 5 seconds

Mi Canción Clásica A'

01234567891011121314151617181920212223
E
B
G
D
A
E
B
0 1 2 3 4 5 6 7 8 9 10 11 12 13 14 15 16 17 18 19 20 21 22 23
Song Science #1: How Pros Use 6 Chords to Write Hit Songs
(/) Slide Up  (\) Slide Down  (h) Hammer On  (p) Pull Off  (b) Bend (r) Release (v) Vibrato

Stave 1:

E|--2h3--2--0--|--0------------|-----------------------|-----------
B|--0----------|--1--3--0h1p0--|--2h3p2----------------|-----------
G|--2----------|--4------------|--4------4--2--0-------|-----------
D|--2----------|--2------------|--4--------------------|--4--2-----
A|--2----------|--0------------|--2---------------0h2--|--2--2-----
E|--0----------|---------------|-----------------------|--0--0-----

Stave 2:

E|-----7--7--7--5--5--5--3--3--3--|-----12--12--12--10--10--10--8---8--8--
B|-----8--------7--------5--------|-----13----------12----------10--------
G|--------------------------------|---------------------------------------
D|--------------------------------|---------------------------------------
A|--------------------------------|--0------------------------------------
E|--0-----------------------------|---------------------------------------

Stave 3:

E|-----8---8--8--7--7--7--5--5--5--7--7--7--|-----7-----5-----3-----2--|--
B|-----10--------8--------7--------8--------|--------------------------|--
G|------------------------------------------|--------------------------|--
D|------------------------------------------|--------------------------|--
A|------------------------------------------|--------------------------|--
E|--7---------------------------------------|--7-----5-----3-----2-----|--

Stave 4:

E|--3--2--|--0--------|-----------------------------|-----2--3--|--
B|--5--3--|--1--3--1--|--3--2--0--------------------|-----------|--
G|--0-----|--2--4--2--|-----------4--2--0-----------|-----------|--
D|--------|-----------|--------------------4--2--0--|--2--------|--
A|--------|--0--------|--2--------------------------|--2--------|--
E|--0-----|-----------|-----------------------------|--0--------|--

Stave 5:

E|--------0--|-----------|--0--|--0--|--0--|--0--|--0--|--0----|--
B|-----4-----|-----2--3--|--0--|--0--|--0--|--1--|--1--|--1----|--
G|--2--------|--4--------|--0--|--0--|--0--|--4--|--4--|--4----|--
D|--2--------|--4--------|--4--|--4--|--4--|--2--|--2--|--2----|--
A|--0--------|--2--------|--2--|--2--|--2--|--0--|--0--|--0----|--
E|-----------|-----------|--0--|--0--|--0--|-----|-----|-------|--

Stave 6:

E|--2--|--0------12--|--
B|--3--|--0--12------|--
G|--0--|--0----------|--
D|--4--|--2----------|--
A|--2--|--2----------|--
E|-----|--0----------|--

http://www.guitartabcreator.com
Guitar Tab Creator is intended to store guitar tab created through the tool. It currently does not support in-line text editing. Any text you place in here will be lost. If you need to comment on your tab, please use the "Tab Notes" section located below.