Sound will begin in 5 seconds

Mi Canción Clásica A

01234567891011121314151617181920212223
E
B
G
D
A
E
B
0 1 2 3 4 5 6 7 8 9 10 11 12 13 14 15 16 17 18 19 20 21 22 23
Song Science #1: How Pros Use 6 Chords to Write Hit Songs
(/) Slide Up  (\) Slide Down  (h) Hammer On  (p) Pull Off  (b) Bend (r) Release (v) Vibrato

Stave 1:

E|--3--2--0--|--0--------|------------------------|---------------
B|--0--------|--1--3--1--|--3--2------------------|---------------
G|--0--------|--2--------|--4-----4--2--0---------|---------------
D|--2--------|--2--------|--4---------------------|----2----------
A|--2--------|--0--------|--2--------------2------|----2----------
E|--0--------|-----------|------------------------|----0----------

Stave 2:

E|--7--5--3--|--12--10--8---|--8---7--5--7--|--------------|------
B|--8--7--5--|--13--12--10--|--10--8--7--8--|--------------|------
G|-----------|--------------|---------------|--------------|------
D|-----------|--------------|---------------|--------------|------
A|-----------|--0-----------|---------------|--------------|------
E|--0--------|--------------|--7------------|--7--5--3--2--|------

Stave 3:

E|--2h3--2--0--|--0----------|-------------------------------|-----
B|--0----------|--1--3--0h1--|-----2h3--2--------------------|-----
G|--0----------|--2----------|-----4-------4--2--0-----------|-----
D|--1----------|--2----------|-----4-------------------------|--2--
A|--1----------|--0----------|-----2----------------0h2------|--2--
E|--0----------|-------------|-------------------------------|--0--

Stave 4:

E|-----7--7--5--7--3--2--3--|-----0--2--3--2--|-----7--5--7--|-----12--10--8---
B|-----8--8--7--8--5--3--5--|-----1--3--5--3--|-----8--7--8--|-----13--12--10--
G|--------------------------|-----------------|--------------|-----------------
D|--------------------------|-----------------|--------------|-----------------
A|--------------------------|-----------------|--------------|--0----------0---
E|--0--------------------0--|--3-----------3--|--8--------8--|-----------------

Stave 5:

E|-----10--8---7--8---10--7--
B|-----12--10--8--10--12--8--
G|------------------------9--
D|------------------------9--
A|------------------------7--
E|--0---------------------0--

http://www.guitartabcreator.com
Guitar Tab Creator is intended to store guitar tab created through the tool. It currently does not support in-line text editing. Any text you place in here will be lost. If you need to comment on your tab, please use the "Tab Notes" section located below.