Sound will begin in 5 seconds

Up in smoke - Cheech & Chong

01234567891011121314151617181920212223
E
B
G
D
A
E
B
0 1 2 3 4 5 6 7 8 9 10 11 12 13 14 15 16 17 18 19 20 21 22 23
Song Science #1: How Pros Use 6 Chords to Write Hit Songs
(/) Slide Up  (\) Slide Down  (h) Hammer On  (p) Pull Off  (b) Bend (r) Release (v) Vibrato

Stave 1:

E|--------------------------5-----------------------5------------------------------------10--10--10--
B|--------------------------5--4--5--7--5-----------5------------------------------------12--12--12--
G|--------------------------6--5--6--7--6-----------6------------------------------------------------
D|-----------------------7--7--------------6--6--7--7------------------------------------------------
A|--------------------4-----7--------------------7--7--9--10--7--9------9--10--7--9------------------
E|--5--5--7--7--8--8--------5-----------------------5---------------10---------------10--------------

Stave 2:

E|--9---9---9---7--7--7--5--3--2-----2-----2-----2--------------------3-----3-----2-----2-----2-----2--
B|--10--10--10--8--8--8--7--5--3-----3-----3-----3--------------------3-----3-----3-----3-----3-----3--
G|-----------------------------2-----2-----2-----2--------------------0-----0-----2-----2-----2-----2--
D|--------------------------------------0-----------------------------0-----0--0-----------0-----------
A|--------------------------------0-----------0-----------------------2--0--2--------0-----------0-----
E|--------------------------------------------------0--2--3--0--2--3--3-----3--------------------------

http://www.guitartabcreator.com
Guitar Tab Creator is intended to store guitar tab created through the tool. It currently does not support in-line text editing. Any text you place in here will be lost. If you need to comment on your tab, please use the "Tab Notes" section located below.