Sound will begin in 5 seconds

Pentatonic Scale (5 positions in the key of 'G' Minor) - A. Kotziamanis (eutopiamusic.eu)

01234567891011121314151617181920212223
E
B
G
D
A
E
B
0 1 2 3 4 5 6 7 8 9 10 11 12 13 14 15 16 17 18 19 20 21 22 23
Song Science #1: How Pros Use 6 Chords to Write Hit Songs
(/) Slide Up  (\) Slide Down  (h) Hammer On  (p) Pull Off  (b) Bend (r) Release (v) Vibrato

Stave 1:

E|--------------------------------3--6--
B|--------------------------3--6--------
G|--------------------3--5--------------
D|--------------3--5--------------------
A|--------3--5--------------------------
E|--3--6--------------------------------

Stave 2:

E|--------------------------------6--8--
B|--------------------------6--8--------
G|--------------------5--7--------------
D|--------------5--8--------------------
A|--------5--8--------------------------
E|--6--8--------------------------------

Stave 3:

E|-------------------------------------8--10--
B|------------------------------8--11---------
G|-----------------------7--10----------------
D|----------------8--10-----------------------
A|---------8--10------------------------------
E|--8--10-------------------------------------

Stave 4:

E|------------------------------------------10--13--
B|----------------------------------11--13----------
G|--------------------------10--12------------------
D|------------------10--12--------------------------
A|----------10--13----------------------------------
E|--10--13------------------------------------------

Stave 5:

E|------------------------------------------13--15/
B|----------------------------------13--15---------
G|--------------------------12--15-----------------
D|------------------12--15-------------------------
A|----------13--15---------------------------------
E|--13--15-----------------------------------------

http://www.guitartabcreator.com
Guitar Tab Creator is intended to store guitar tab created through the tool. It currently does not support in-line text editing. Any text you place in here will be lost. If you need to comment on your tab, please use the "Tab Notes" section located below.