Sound will begin in 5 seconds

Chromatic Scale Exercises 1 - A. Kotziamanis (eutopiamusic.eu)

01234567891011121314151617181920212223
E
B
G
D
A
E
B
0 1 2 3 4 5 6 7 8 9 10 11 12 13 14 15 16 17 18 19 20 21 22 23
Song Science #1: How Pros Use 6 Chords to Write Hit Songs
(/) Slide Up  (\) Slide Down  (h) Hammer On  (p) Pull Off  (b) Bend (r) Release (v) Vibrato

Stave 1:

E|-1-2-3-4-2-3-4-5-3-4-5-6-4-5-6-7-5-6-7-8-6-7-8-9-
B|-------------------------------------------------
G|-------------------------------------------------
D|-------------------------------------------------
A|-------------------------------------------------
E|-------------------------------------------------

Stave 2:

E|---------1-2-3-4---------2-3-4-5---------3-4-5-6---------4-5-6-7-
B|-1-2-3-4---------2-3-4-5---------3-4-5-6---------4-5-6-7---------
G|-----------------------------------------------------------------
D|-----------------------------------------------------------------
A|-----------------------------------------------------------------
E|-----------------------------------------------------------------

Stave 3:

E|-8-7-6-5-7-6-5-4-6-5-4-3-----------------------------------------
B|-------------------------6-5-4-3---------------------------------
G|---------------------------------6-5-4-3-------------------------
D|-----------------------------------------6-5-4-3-----------------
A|-------------------------------------------------6-5-4-3---------
E|---------------------------------------------------------6-5-4-3-

Stave 4:

E|-----------------------------------------3-4-5-6-7-6-5-4-----------------------------------------
B|---------------------------------3-4-5-6-----------------7-6-5-4---------------------------------
G|-------------------------3-4-5-6---------------------------------7-6-5-4-------------------------
D|-----------------3-4-5-6-------------------------------------------------7-6-5-4-----------------
A|---------3-4-5-6-----------------------------------------------------------------7-6-5-4---------
E|-3-4-5-6---------------------------------------------------------------------------------7-6-5-4-

http://www.guitartabcreator.com
Guitar Tab Creator is intended to store guitar tab created through the tool. It currently does not support in-line text editing. Any text you place in here will be lost. If you need to comment on your tab, please use the "Tab Notes" section located below.