Sound will begin in 5 seconds

Kurt Rosenwinkel improvisation

01234567891011121314151617181920212223
E
B
G
D
A
E
B
0 1 2 3 4 5 6 7 8 9 10 11 12 13 14 15 16 17 18 19 20 21 22 23
Song Science #1: How Pros Use 6 Chords to Write Hit Songs
(/) Slide Up  (\) Slide Down  (h) Hammer On  (p) Pull Off  (b) Bend (r) Release (v) Vibrato

Stave 1:

E|------10--8--6------6--8--10----------------------------------10--10--8--8-----
B|--10------------10------------8--10--8--6--6--------------10-------------------
G|----------------------------------------------9--7--7--------------------------
D|-------------------------------------------------------------------------------
A|-------------------------------------------------------5--------------------3--
E|-------------------------------------------------------5--------------------3--

Stave 2:

E|--6--5--3-----------3--5------------------10--8--6----------------------------------
B|-----------6--4--6--------3--1--------10------------10--8--6--10--------6--8--8--8--
G|------------------------------------------7-----------------------7--7-----------6--
D|---------------------------------------------------------------------------------8--
A|--------------------------------3--5---------------------------------------------8--
E|--------------------------------3--5---------------------------------------------6--

Stave 3:

E|-----------------------------------------------------------------------------------------
B|--9--8--6-----8--8--6--6-----6--3-----6--3-----------------3-----3--6--3-----3-----------
G|-----------7-----------------5-----5--------5-----7-----7-----5-----------5-----5--3-----
D|-----------------------------5-----------------5--------7-----------------------------4--
A|-----------------------------6--------------------------5--------------------------------
E|--------------------------5--------------------------5--5--------------------------------

Stave 4:

E|-----------------------------------------------------------------5--6--8--10--6--8--
B|--------------------3-----------------------------------------6---------------------
G|-----------------------5--3--2--5--3-----3-----3-----------7------------------------
D|-----------------------------------------3--5-----7--5--8---------------------------
A|--6--3--5--3------------------------------------------------------------------------
E|--------------4--2--------------------3---------------------------------------------

Stave 5:

E|-----9--8--6-----6--8--8--9--8--6-----------------------------8--6--5--------5-----6--5--
B|-----6--------8--------------------9--8--6--------------------------------------8--5-----
G|-----8--------------------------------------8--6--5--------------------------------6-----
D|-----------------------------------------------------8--6--5--------------7--------------
A|-----------------------------------------------------------------------------------------
E|--6--------------------------------------------------------------------0-----------5-----

Stave 6:

E|--8--5---------------------------------------------------------10-----10--15--10--13--17--
B|--------8--6--5--------------------------------------------10-----------------------------
G|-----------------6---------------------------------------------7--------------------------
D|--------------------7--5--7--5-----------------------------7------------------------------
A|--------------------------------6--4-----6--4-----------5----------5----------------------
E|--------------------------------------5--------5--3--5-------------5----------------------

Stave 7:

E|--------------------------------10--17-----17--13--------------------------------------
B|--15--10-------------------------------------------15----------------------------------
G|----------10-------------------------------------------15--12--15--14--12--14--10------
D|--------------12-------------------------------------------------------------------12--
A|------------------12--8-----------------3----------------------------------------------
E|-------------------------10--5----------3----------------------------------------------

Stave 8:

E|-------------------17--17--15--17--13-------------------------------------
B|---------------------------------------15---------------------------------
G|-------------------------------------------14-----------------------------
D|-----------------------------------------------15--12---------------------
A|--12--8--10--3--2--------------------------------------14--12-------------
E|-------------3--2----------------------------------------------13--10--7--

Stave 9:

E|--7--10--10--13--12--11--10--10--13--12--11--10--10-----13--17--15--12--10--8---6--5--
B|--------------------------------------------------------------------13--11--10--8--6--
G|--------------------------------------------------------------------------------------
D|--------------------------------------------------------------------------------------
A|-----------------------------------------------------1--------------------------------
E|-----------------------------------------------------1--------------------------------

Stave 10:

E|----------------------------------------------------------------------------------
B|--8--6--5-----------------------------------3--5--6--8-----8--6--5--6--10-----10--
G|-----------7--5--------5--------------3--5-----------------5------------------9---
D|-----------------8--7-----5-----5--7-----------------------5------------------10--
A|--------------------------------------------------------5------------------8------
E|-----------------------------3----------------------------------------------------

Stave 11:

E|-----------------------------------------------------------------------------------
B|--13--15------15--13--11--10--13------13--10--8--11------11--10--8------10-----10--
G|--------------14----------------------10-----------------10---------10---------7---
D|--------------15----------------------12-----------------8---------------------7---
A|----------13----------------------10-----------------------------------------------
E|-----------------------------------------------------10---------------------7------

Stave 12:

E|-----------------------------------------------------------------------------------
B|--8--6-----6-----6-----8-----8--8--8--6--5--------------4-----6--6-----6--3--------
G|-----------7-----7-----7-----7--7--6--------7--5-----5--------5--------5--------5--
D|-----------------------6-----6--6--5-----------0-----0--------0--------------------
A|-----------8-----8-----------------0-----------------------------------5--------5--
E|--------6-----6-----6-----6-----------------------5--------5--------4--------4-----

Stave 13:

E|--------------------------------------------------------------------------------
B|--6--5--------------3-----5--3--------------------------------------------------
G|-----------5--3--5-----5--5-----5--3--2--2--2--2--2--2--2--2--2--3--3--3--2-----
D|--------------3-----------3-----------2--2--2--2--2--2--2--2--2--2--2--2--3-----
A|-----------5--------------5-----------4--4--4--4--4--4--4--4--4--3--3--3--3--5--
E|--------4-----3-----------3-----------------------------------------------1--5--

Stave 14:

E|------10--8-----------------------------------------------------8------10--8---------
B|--10---------10--6--------8--10-----------------------------10-----10---------10--8--
G|------7-------------7------------------------------6--6--5---------------------------
D|-----------------------7---------6--6--8--8--7--7--5--5--3---------------------------
A|---------------------------------6--6--6--6--6--6--6--6--5---------------------------
E|---------------------------------------------------------5---------------------------

Stave 15:

E|---------------------------------------------------------------------------------5--
B|--6--7--6--8--6--------6--------6--------6------------------------------------6-----
G|-----------------7-----------8--------8--------8--8--8---------------5-----7--------
D|--------------------8--------8--------8--------8--8--8--10--------7-----8-----------
A|--------------------------------------------------8--8--8------8--------------------
E|--------------------------8--------8--------8---------------6-----------------------

Stave 16:

E|--6--8--5-----------------------------------6--5--------------------5--8--13--10--
B|-----------6-----8-----8--8-----8--8-----8--------8-----8--6--5--6----------------
G|--------------7--------5--------5--------5--------------5-------------------------
D|--------------------------------------------------------5-------------------------
A|--------------------------------------------------------7-------------------------
E|--------------------5--------5--------5--------------5----------------------------

Stave 17:

E|-----10--9---13--9------------------------------------------8--12--8---------------------
B|-----11--10---------10-----------------------------------9------------9------------------
G|-----10--9--------------10----------------------------9------------------9---------------
D|-----10--9------------------11--7--------------6--10------------------------10--7--------
A|--9------8-------------------------8--------7-----------------------------------------8--
E|--------------------------------------9--8-----------------------------------------8-----

Stave 18:

E|------------------------------------10----------------------------------------------------
B|--------------------------8--9--10------10--8---------------------------------------------
G|---------7--9--10--9--10-----9-----------------10--9--8-----8--8-----8--8-----8--8-----8--
D|--7--10-----------------------------------------------------8--------7--------6--------6--
A|------------------------------------------------------------------------------------------
E|-----------------------------8---------------------------8--------8--------7--------7-----

Stave 19:

E|--------------------------------------------------------------------------------------------
B|--------------------6-----6--6-----6--6-----6--6-----6--8--8-----8--9-------9---9-------10--
G|--7-----7--7-----7--------7--------7--------6--------6--5--5-----5--11------11--11----------
D|--------6--------6--------5--------5--------5--------5--7--7-----7--10------10--10----------
A|--------------------------------------------------------7--7-----7--------------------------
E|-----7--------7--------6--------6--------6--------6-----------5---------10----------10------

Stave 20:

E|--8----------------------------------6--5--------------5--9--12--------------------10--13--
B|---------11--10------10--8-----8-----5-----8--6--5--6------------------10------11----------
G|---------10----------10--------7-----6-----6--7--6---------------------9---10--------------
D|---------------------8---------------------5--9--7---------------------9---8---------------
A|-----10---------------------7------------------------------------9--8--8-------------------
E|-----------------10---------------5----------------------------------------10--------------

Stave 21:

E|--17--17--15--13--13--13--8---8--8--5--5--3--1--------------------------------------------
B|------14--13--15--13--10--10--8--5--6--3--2--1--3--1--------------------------------------
G|------15--14--14--12--11--9---7--6--5--3--3--2--2--2--2-----------2--------2-----3--3--5--
D|------14------13--12--10--8---7--5--5--3--2-----------2--3--------3--------3-----3--3--3--
A|----------15---------------------------------3--3--3-----3--3-----3--3-----3-----1--1-----
E|------------------------------------------------1--1-----1-----1--------1-----3--3--3--4--

Stave 22:

E|--------------------------------------------6-----4-----6--8-----8--8--8--8-----8--8-----8--
B|-----------6-----6--6-----------9--8--8--6--4-----4-----4--6-----6--6--6--6-----6--6-----6--
G|--5-----5--3-----3--3-----------6--6--6--6--3-----3-----3--5-----5--5--5--5-----5--5-----5--
D|--3-----3--3-----3--3-----3-----6--6--6--6--------------------------------------------------
A|-----------------------------------------------4-----4--------6--------7-----7--------7-----
E|-----4-----4--4-----4--4-----0--7--7--7--7--------------------------------------------------

Stave 23:

E|--8-----8-------------------------------------13--10-----------------------------------------
B|--6-----6---------13--13--13--11--10--8-------11------11--10-----10--8--6--5-----5-----5-----
G|--5-----5---------12--12--12--10------10--10--10----------9------9---5--5--5--7--6-----6-----
D|------------------12--12--12--10------10------------------8------8---7--7--7-----7-----7-----
A|-----7----------------------------------------10---------------------5--5--5-----8--8--8--8--
E|-----------0--13--13--13--13--11------10------------------8---9------------------------------

Stave 24:

E|-----------------------1--1--1--1--1--1--1--------------------------------------------------
B|--------6--6--6--6-----1--2--2--1--1--3--3-----2--2--2--------6--6-----6--6--6--6--6--6--6--
G|--7-----3--3--4--4-----3--1--1--2--2--3--3-----3--3--3--2--2--4--4-----5--5--5--5--5--6--6--
D|--9-----3--------------------------------------3--3--3--3--3--3--3-----6--3--3--5--5--7--7--
A|--------5--5--6--6-----4--2--2--------------------------3--3--------4-----------------------
E|-----3-----3--4--4--2-----------1--1--3--3--3--3--3--3--1--1--4--4--------5--5--6--6--7--7--

Stave 25:

E|--------------8-----8-----8-----15--12--13--10--12--9--10--10-----10--------------------
B|--6--6-----6--8-----8-----8-----13------11------10-----8---8------8---------------------
G|--7--7-----6--7-----7-----7-----12------10------9------7---7------7---6-----6--6-----7--
D|--8--8-----8----------------------------------------------------------5-----5--5-----5--
A|-----------------8-----8--------12------10------9------7-------7------------------------
E|--8--8--8--------------------0-------------------------------------------5--------5-----

Stave 26:

E|--------------
B|--3--3-----3--
G|--------------
D|--5--5-----5--
A|--5-----5-----
E|--------------

http://www.guitartabcreator.com
Guitar Tab Creator is intended to store guitar tab created through the tool. It currently does not support in-line text editing. Any text you place in here will be lost. If you need to comment on your tab, please use the "Tab Notes" section located below.