Sound will begin in 5 seconds

the rising sun

Chords
01234567891011121314151617181920212223
E
B
G
D
A
E
B
0 1 2 3 4 5 6 7 8 9 10 11 12 13 14 15 16 17 18 19 20 21 22 23
Song Science #1: How Pros Use 6 Chords to Write Hit Songs
(/) Slide Up  (\) Slide Down  (h) Hammer On  (p) Pull Off  (b) Bend (r) Release (v) Vibrato

Stave 1:

E|-----9---------9-----9-----
B|--------10-----------------
G|--9---------9-----9-----9--
D|---------------------------
A|---------------------------
E|---------------------------

Stave 2:

E|-------------------------
B|-------------------------
G|--9v--9--8--7--8--9--9v--
D|-------------------------
A|-------------------------
E|-------------------------

Stave 3:

E|-------------------------
B|-------------------------
G|-------------------------
D|--9v--9--7--6--7--9--9v--
A|-------------------------
E|-------------------------

Stave 4:

E|-----------------------
B|-----------------------
G|-----------------------
D|-----------------------
A|--5--7v-----5--7v--12--
E|---------5-------------

Stave 5:

E|--------------------
B|--------------------
G|--7--9-----7--9--14--
D|--7--9--7--7--9--14--
A|--5--7--7--5--7--12--
E|-------5------------

Stave 6:

E|--3--2-----
B|----3--2--
G|----2--2--
D|-------2--
A|--2--------
E|--3--------

http://www.guitartabcreator.com
Guitar Tab Creator is intended to store guitar tab created through the tool. It currently does not support in-line text editing. Any text you place in here will be lost. If you need to comment on your tab, please use the "Tab Notes" section located below.