Sound will begin in 5 seconds

U Got Me Hooked

01234567891011121314151617181920212223
E
B
G
D
A
E
B
0 1 2 3 4 5 6 7 8 9 10 11 12 13 14 15 16 17 18 19 20 21 22 23
Song Science #1: How Pros Use 6 Chords to Write Hit Songs
(/) Slide Up  (\) Slide Down  (h) Hammer On  (p) Pull Off  (b) Bend (r) Release (v) Vibrato

Stave 1:

E|--------------------------
B|--------------------------
G|--------------------------
D|--------------------------
A|--8--8--8--8--8--8--8-----
E|--6--6--6--6--6--6--6--0--

Stave 2:

E|-----------------------------------------------------
B|-----------------------------------------------------
G|-----------------------------------------------------
D|-----------------------6--8--8--8--8--6--6--6--------
A|--8--8--8--8--8--8--8--4--6--6--6--6--4--4--4--6--8--
E|--6--6--6--6--6--6--6--------------------------4--6--

Stave 3:

E|----------------------------------------------------
B|----------------------------------------------------
G|----------------------------------------------------
D|-----------------------6--8--8--8--10--10--8--6-----
A|--8--8--8--8--6--6--6--4--6--6--6--8---8---6--4--8--
E|--6--6--6--6--4--4--4----------------------------6--

Stave 4:

E|-----------------------
B|-----------------------
G|-----------------------
D|--------------------6--
A|--8--8--8--8--8--8--4--
E|--6--6--6--6--6--6-----

Stave 5:

E|--x---
B|--9---
G|--10--
D|--10--
A|--8---
E|------

Stave 6:

E|--------------------------------------------------------------------------------------------------------
B|--------------------------------------------------------------------------------------------------------
G|----------------------------------------------------------------------------11--------------------------
D|------------------------------------------------11------11----------11--13------13--11------------------
A|-----------------------9--11--9--11--9--11--13------13------11--13----------------------13--11----------
E|--9--11--9--11--9--11---------------------------------------------------------------------------14--11--

http://www.guitartabcreator.com
Guitar Tab Creator is intended to store guitar tab created through the tool. It currently does not support in-line text editing. Any text you place in here will be lost. If you need to comment on your tab, please use the "Tab Notes" section located below.