Sound will begin in 5 seconds

Sultans of swing

01234567891011121314151617181920212223
E
B
G
D
A
E
B
0 1 2 3 4 5 6 7 8 9 10 11 12 13 14 15 16 17 18 19 20 21 22 23
Song Science #1: How Pros Use 6 Chords to Write Hit Songs
(/) Slide Up  (\) Slide Down  (h) Hammer On  (p) Pull Off  (b) Bend (r) Release (v) Vibrato

Stave 1:

E|---------------------------5-8-5-----------
B|-------------------6-----6-------6-5h6p5---
G|--5-5-7-5------7-----7-7-----------------7-
D|--5-5-7-5--5h7---7-------------------------
A|-------------------------------------------
E|-------------------------------------------

Stave 2:

E|--------------------------
B|--------------------------
G|---4b6-6r4b6r4------------
D|--------------------------
A|--------------------------
E|--------------------------

Stave 3:

E|-----------------------
B|------10----10----10---
G|-----------------------
D|-2/11----11----11------
A|-----------------------
E|-----------------------

Stave 4:

E|--------------------
B|--5---5--5-5-5-5--3-
G|--5---5--6-5-6-5--3-
D|---------7--------3-
A|--------------------
E|--------------------

Stave 5:

E|-10p9----------------
B|------10-------------
G|---------9p7p6-------
D|---------------7-5---
A|-------------------7-
E|---------------------

Stave 6:

E|--------------
B|-5-5--5-5-5-3-
G|-5-5--6-6-5-3-
D|------------3-
A|--------------
E|--------------

Stave 7:

E|---10-8----
B|---10---10-
G|---10-9-10-
D|-----------
A|-----------
E|-----------

http://www.guitartabcreator.com
Guitar Tab Creator is intended to store guitar tab created through the tool. It currently does not support in-line text editing. Any text you place in here will be lost. If you need to comment on your tab, please use the "Tab Notes" section located below.