Sound will begin in 5 seconds

Long Black Veil

01234567891011121314151617181920212223
E
B
G
D
A
E
B
0 1 2 3 4 5 6 7 8 9 10 11 12 13 14 15 16 17 18 19 20 21 22 23
Song Science #1: How Pros Use 6 Chords to Write Hit Songs
(/) Slide Up  (\) Slide Down  (h) Hammer On  (p) Pull Off  (b) Bend (r) Release (v) Vibrato

Stave 1:

E|------------------------------------------------------------------
B|------------------------------------------------------------------
G|------------------------------------------------------------------
D|-------0v----0-2p0------------0v----2p0-2/4v-------4p3p2\0v-v-v-v-
A|-0-2-4----------------2p0-0-2-------------------------------------
E|------------------------------------------------------------------

Stave 2:

E|-----------------------------------------------------------------2-----
B|------------------------2----------------3-5v------3b5---------3---3---
G|--------------------------2----------2/4---------4-----4-2v------------
D|-0-2v----2-0-2----4-2-4--------2-0-2---------------------------------0-
A|-----------------------------------------------------------------------
E|-----------------------------------------------------------------------

Stave 3:

E|---------------------------------------------7-10----12b14-10-12b14-12-10v-v-
B|-----7v-------7v----7v-8-10-8-7v----7h8p7-10---------------------------------
G|--------9-7-9----------------------------------------------------------------
D|-5/7-------------------------------------------------------------------------
A|-----------------------------------------------------------------------------
E|-----------------------------------------------------------------------------

Stave 4:

E|-12-11-12p11p10----11p10-------------10-12-10----------------10-12-------10----------------------------
B|----------------12-------12----10-12----------12-10v----7/12----------12-------12-10v------------------
G|--------------------------------------------------------------------------------------------11p10p9\7v-
D|-------------------------------------------------------------------------------------------------------
A|-------------------------------------------------------------------------------------------------------
E|-------------------------------------------------------------------------------------------------------

http://www.guitartabcreator.com
Guitar Tab Creator is intended to store guitar tab created through the tool. It currently does not support in-line text editing. Any text you place in here will be lost. If you need to comment on your tab, please use the "Tab Notes" section located below.