Sound will begin in 5 seconds

Raise You Up/ Just Be

01234567891011121314151617181920212223
E
B
G
D
A
E
B
0 1 2 3 4 5 6 7 8 9 10 11 12 13 14 15 16 17 18 19 20 21 22 23
Song Science #1: How Pros Use 6 Chords to Write Hit Songs
(/) Slide Up  (\) Slide Down  (h) Hammer On  (p) Pull Off  (b) Bend (r) Release (v) Vibrato

Stave 1:

E|-----------------------|-----------------------|-----------------------
B|-----------------------|-----------------------|-----------------------
G|--------2--5--7--------|-----------1--5--------|-----------------------
D|-----3-----------------|-----2--5--------------|-----------3-----------
A|--5--------------5--5--|--3--------------3--3--|-----0--3--------------
E|-----------------------|-----------------------|--1-----------1--1--1--

Stave 2:

E|-----------------------|-----------------------|-----------------------|-----------------------
B|-----------------------|-----------------------|-----------------------|-----------------------
G|-----------------------|--------2--5--7--------|-----------3--5--------|-----------------------
D|-----------5-----------|--0--3-----------0--0--|-----2--5--------------|-----------3-----------
A|-----2--5--------------|-----------------------|--3--------------3--3--|-----0--3--------------
E|--3-----------3--3--3--|-----------------------|-----------------------|--1-----------1--1--1--

Stave 3:

E|-----------------------|-----------------------|-----------------------|-----------------------
B|-----------------------|-----------------------|-----------------------|-----------------------
G|-----------------------|-----7--7-----7-----7--|-----------------------|-----7--7-----7-----7--
D|-----------5-----------|-----------------------|-----5--5-----5-----5--|-----------------------
A|-----2--5--------------|--5--------5-----5-----|-----------------------|--5--------5-----5-----
E|--3-----------3--3--3--|-----------------------|--3--------3-----3-----|-----------------------

Stave 4:

E|-----------------------
B|-----------------------
G|-----2--2-----2-----2--
D|-----------------------
A|--0--------0-----0-----
E|-----------------------

Stave 5:

E|-----------------------|-----------------------|-----------------------|--------------
B|-----------------------|-----------------------|-----------------------|--------------
G|-----7--7-----7-----7--|-----------------------|-----2--2-----2-----2--|--------------
D|-----------------------|-----3--3-----3-----3--|-----------------------|--------------
A|--5--------5-----5-----|-----------------------|--0--------0-----0-----|--0--0--0--0--
E|-----------------------|--1--------1-----1-----|-----------------------|--------------

Stave 6:

E|--------------------------
B|--------------------------
G|-----------------2-----2--
D|-----5-----5--------------
A|--------------0-----0-----
E|--3-----3-----------------

Stave 7:

E|--------------------------|--------------------------|--------------------------
B|--------------------------|--------------------------|--------------------------
G|-----------------4-----4--|-----------------2-----2--|-----------------4-----4--
D|-----3-----3--------------|-----5-----5--------------|-----3-----3--------------
A|--------------2-----2-----|--------------0-----0-----|--------------2-----2-----
E|--1-----1-----------------|--3-----3-----------------|--1-----1-----------------

Stave 8:

E|----------------------------
B|----------------------------
G|-------------------4-----4--
D|-------3-----3--------------
A|----------------2-----2-----
E|----1-----1-----------------

Stave 9:

E|-----------------------|-----------------------|-----------------------|-----------------------
B|-----------------------|-----------------------|-----------------------|-----------------------
G|-----------------------|-----------------------|-----------------------|-----------------------
D|-----0--2--5-----------|-----0--2--5-----------|-----0--2--5-----------|-----0--2--5-----------
A|--3-----------3--3--3--|--3-----------3--3--3--|--3-----------3--3--3--|--3-----------3--3--3--
E|-----------------------|-----------------------|-----------------------|-----------------------

Stave 10:

E|--------------|--------------|--------------|--------------
B|--------------|--------------|--------------|--------------
G|--------------|--------------|--------------|--------------
D|--------------|--------------|--------------|--------------
A|--5--5--5--5--|--5--5--5--5--|--3--3--3--3--|--3--3--3--3--
E|--------------|--------------|--------------|--------------

Stave 11:

E|--------------|--------------------------|--------------------------|--------------------------
B|--------------|-----4-----4--------------|--------------------------|-----4-----4--------------
G|--------------|--------------------------|-----7-----7--------------|--------------------------
D|--2--2--2--2--|--1-----1--------3-----3--|-----------------5-----5--|--1-----1--------3-----3--
A|--------------|--------------------------|--5-----5-----------------|--------------------------
E|--------------|--------------1-----1-----|--------------3-----3-----|--------------1-----1-----

Stave 12:

E|--------------------------|--------------------------|--------------------------|-----------------------
B|--------------------------|--------------------------|--------------------------|-----------------------
G|-----7-----7--------------|-----8-----8--------------|-----7-----7--------------|--1--3--5--8--1--1--1--
D|-----------------5-----5--|-----------------3-----3--|-----------------5-----5--|-----------------------
A|--5-----5-----------------|--6-----6-----------------|--5-----5-----------------|-----------------------
E|--------------3-----3-----|--------------1-----1-----|--------------3-----3-----|-----------------------

Stave 13:

E|-----------------
B|-----------------
G|-----------------
D|-----------1-----
A|-----1--3--------
E|--4-----------4--

Stave 14:

E|----------------|--------------------------|--------------------------|--------------------------
B|----------------|--------------------------|--------------------------|--------------------------
G|----------------|--------------3-----------|--------------3-----------|--------------3-----------
D|-------6-----6--|--2--2--2--4-----------2--|--2--2--2--4-----------2--|--2--2--2--4-----------2--
A|----------------|-----------------2--4-----|-----------------2--4-----|-----------------2--4-----
E|----4-----4-----|--------------------------|--------------------------|--------------------------

Stave 15:

E|--------------------------|--------------------------|-----------------------|-----------------------
B|--------------------------|--------------------------|-----------------------|-----------------------
G|--------------3-----------|--------------3-----------|-----------3-----------|-----------3-----------
D|--2--2--2--4-----------2--|--2--2--2--4-----------2--|--2--2--4-----------2--|--2--2--4-----------2--
A|-----------------2--4-----|-----------------2--4-----|--------------2--4-----|--------------2--4-----
E|--------------------------|--------------------------|-----------------------|-----------------------

Stave 16:

E|-----------------------|-----|--|-----------|--------------------
B|-----------------------|-----|--|-----------|--------------------
G|-----------3-----------|-----|--|-----------|--------------------
D|--2--2--4-----------2--|--2--|--|-----------|--------------------
A|--------------2--4-----|-----|--|--3--5-----|--------0--3--5-----
E|-----------------------|-----|--|--------1--|--1--3-----------1--

Stave 17:

E|--------------------|--------------------|--------------------|--------------------|--------------------
B|--------------------|--------------------|--------------------|--------------------|--------------------
G|--------------------|--------------------|--------------------|--------------------|--------------------
D|--------------------|--------------------|--------------------|--------------------|--------------------
A|--------0--3--5-----|--------0--3--5-----|--------0--3--5-----|--------0--3--5-----|--------0--3--5-----
E|--1--3-----------1--|--1--3-----------1--|--1--3-----------1--|--1--3-----------1--|--1--3-----------1--

Stave 18:

E|--------------------|--------------------|-----------|-----------|--|-----------
B|--------------------|--------------------|-----------|-----------|--|-----------
G|--------------------|--------------------|-----------|-----------|--|-----------
D|--------------------|--------------------|-----------|-----------|--|-----------
A|--------0--3--5-----|--------0--3--5-----|--3--5-----|--3--5-----|--|--3--5-----
E|--1--3-----------1--|--1--3-----------1--|--------1--|--------1--|--|--------1--

Stave 19:

E|-----------|--------------|-----|--|---------------------------|--------------------------|--
B|-----------|--------------|-----|--|---------------------------|--------------------------|--
G|-----------|--------------|-----|--|-----------------10--------|-----------------8--------|--
D|-----------|--------------|-----|--|---------------------------|--------------------------|--
A|--3--5-----|-----0--3--5--|-----|--|--8--8--8--8--8------8--6--|--6--6--6--6--6-----6--1--|--
E|--------1--|--3-----------|--1--|--|---------------------------|--------------------------|--

Stave 20:

E|--------------------------|--------------------------|---------------------------|--------------------------
B|--------------------------|--------------------------|---------------------------|--------------------------
G|--------------------------|--------------------------|-----------------10--------|-----------------8--------
D|--------------------------|--------------------------|---------------------------|--------------------------
A|--1--1--1--1--1--1--1-----|--------------------------|--8--8--8--8--8------8--6--|--6--6--6--6--6-----6--1--
E|-----------------------1--|--1--1--1--1--1--1--1--1--|---------------------------|--------------------------

Stave 21:

E|--------------------------|--------------------------|-----|--------|-----|-----|--
B|--------------------------|--------------------------|-----|--------|-----|-----|--
G|--------------------------|--------------------------|-----|--------|-----|-----|--
D|--------------------------|--------------------------|-----|--------|--3--|-----|--
A|--1--1--1--1--1--1--1-----|--------------------1--1--|-----|--4--6--|-----|-----|--
E|-----------------------1--|--1--1--1--1--1--1--------|--1--|--------|-----|--1--|--

http://www.guitartabcreator.com
Guitar Tab Creator is intended to store guitar tab created through the tool. It currently does not support in-line text editing. Any text you place in here will be lost. If you need to comment on your tab, please use the "Tab Notes" section located below.