Sound will begin in 5 seconds

serpents textures

01234567891011121314151617181920212223
E
B
G
D
A
E
B
0 1 2 3 4 5 6 7 8 9 10 11 12 13 14 15 16 17 18 19 20 21 22 23
Song Science #1: How Pros Use 6 Chords to Write Hit Songs
(/) Slide Up  (\) Slide Down  (h) Hammer On  (p) Pull Off  (b) Bend (r) Release (v) Vibrato

Stave 1:

E|--12--13--10--12----------12--13/15--12--13/17--15--13--15--13--12--13--12--10--12--9--10--
B|------------------10--10-------------------------------------------------------------------
G|-------------------------------------------------------------------------------------------
D|-------------------------------------------------------------------------------------------
A|-------------------------------------------------------------------------------------------
E|-------------------------------------------------------------------------------------------

Stave 2:

E|----------15--13--12h13p12\10--12--10---------------------
B|------13-------------------------------13--10-------------
G|--12-------------------------------------------12--10h12--
D|----------------------------------------------------------
A|----------------------------------------------------------
E|----------------------------------------------------------

Stave 3:

E|----------------------------------------------------------------------------------------------------------------
B|--8---------8---------8---------8---------8------------------8--------8--------8--------8-----------------------
G|-----7--10-----7--10-----7--10-----7--10-----7--10--7--5--7-----5--7-----5--7-----5--7--------------------------
D|----------------------------------------------------------------------------------------------------------------
A|----------------------------------------------------------------------------------------------------------------
E|----------------------------------------------------------------------------------------------------------------

Stave 4:

E|----------------------------------------------------------------------------------------
B|--------8--------8-----8---------8---------8---------8---------8------------------------
G|--5--7-----5--7-----7-----7--10-----7--10-----7--10-----7--10-----7--10--7--12--10------
D|------------------------------------------------------------------------------------12--
A|----------------------------------------------------------------------------------------
E|----------------------------------------------------------------------------------------

Stave 5:

E|-----------------------------------------------------------------------------------
B|-----------------------------------------------------------------------------------
G|-----------------------------------------------------------------------------------
D|-----------------------------------------------------------------------------------
A|-----------8--5-----------6--5-----------6--------------------8--5-----------6--5--
E|--0--0--0--------0--0--0--------0--0--0-----3--0--0--0--0--0--------0--0--0--------

Stave 6:

E|-----------------------------------------------------------------------------------------
B|-----------------------------------------------------------------------------------------
G|-----------------------------------------------------------------------------------------
D|-----------------------------------------------------------------------------------------
A|--------------------------------8--5-----------6--5-----------6--------------------8--5--
E|--0--0--3--0--0--3--5--0--0--0--------0--0--0--------0--0--0-----3--0--0--0--0--0--------

Stave 7:

E|--------------------------------
B|--------------------------------
G|--------------------------------
D|--------------------3--3--5--5--
A|-----------6--5--0--3--3--5--5--
E|--0--0--0-----------3--3--5--5--

http://www.guitartabcreator.com
Guitar Tab Creator is intended to store guitar tab created through the tool. It currently does not support in-line text editing. Any text you place in here will be lost. If you need to comment on your tab, please use the "Tab Notes" section located below.