Sound will begin in 5 seconds

Elysium - Bear's Den

01234567891011121314151617181920212223
E
B
G
D
A
E
B
0 1 2 3 4 5 6 7 8 9 10 11 12 13 14 15 16 17 18 19 20 21 22 23
Song Science #1: How Pros Use 6 Chords to Write Hit Songs
(/) Slide Up  (\) Slide Down  (h) Hammer On  (p) Pull Off  (b) Bend (r) Release (v) Vibrato

Capo Fret 5

Stave 1:

D|-----------------------------------|-------------------------------------|-
A|-----------------------------------|-------------------------------------|-
G|-----------------------------------|-------------------------------------|-
D|------9--------9--------9--------9-|--------9--------9--------9--------9-|-
A|---10-------10-------10-------10---|-----10-------10-------10-------10---|-
D|-5------5-5------5-5------5-5------|-5-5------5-5------5-5------5-5------|-

Stave 2:

D|-------------------------------------|-----------------------------------------------
A|-------------------------------------|-----------------------------------------------
G|-------------------------------------|-----------------------------------------------
D|--------9--------9--------9--------9-|----------5----------5----------5------------5-
A|-----10-------10-------10-------10---|-------14---------14---------14---------14-----
D|-5-5------5-5------5-5------5-5------|-14-14------14-14------14-14------14-14--------

Stave 3:

D|---------------------------------|-----------------------------------------|---
A|---------------------------------|-----------------------------------------|---
G|---------------------------------|-----------------------------------------|---
D|-------5-------5-------5-------5-|---------5---------5---------5---------5-|-5-
A|-----9-------9-------9-------9---|-------5---------5---------5---------5---|---
D|-9-9-----9-9-----9-9-----9-9-----|-10-10-----10-10-----10-10-----10-10-----|---

http://www.guitartabcreator.com
Guitar Tab Creator is intended to store guitar tab created through the tool. It currently does not support in-line text editing. Any text you place in here will be lost. If you need to comment on your tab, please use the "Tab Notes" section located below.