Sound will begin in 5 seconds

Vencer - Not For Me

01234567891011121314151617181920212223
E
B
G
D
A
E
B
0 1 2 3 4 5 6 7 8 9 10 11 12 13 14 15 16 17 18 19 20 21 22 23
Song Science #1: How Pros Use 6 Chords to Write Hit Songs
(/) Slide Up  (\) Slide Down  (h) Hammer On  (p) Pull Off  (b) Bend (r) Release (v) Vibrato

Stave 1:

D|-2-2-2-2-2-2-2-2---7--7--7--7--7--7--7--7----2-2-2-2-2-2-2-2---5-5-5-5-----------
A|-3-3-3-3-3-3-3-3---10-10-10-10-10-10-10-10---5-5-5-5-5-5-5-5---8-8-8-8-----------
F|-2-2-2-2-2-2-2-2---9--9--9--9--9--9--9--9----4-4-4-4-4-4-4-4---7-7-7-7-----------
C|-0-0-0-0-0-0-0-0-x-7--7--7--7--7--7--7--7--x-2-2-2-2-2-2-2-2-x-5-5-5-5-4-4-4-4-x-
G|-0-0-0-0-0-0-0-0-x-7--7--7--7--7--7--7--7--x-2-2-2-2-2-2-2-2-x-5-5-5-5-4-4-4-4-x-
C|-0-0-0-0-0-0-0-0-x-7--7--7--7--7--7--7--7--x-2-2-2-2-2-2-2-2-x-5-5-5-5-4-4-4-4-x-

Stave 2:

D|-------------------------------
A|-------------------------------
F|-------------------------------
C|-x-x-x-0-0-x-x-x-5-5-x-x-x-4-4-
G|-x-x-x-0-0-x-x-x-5-5-x-x-x-4-4-
C|-x-x-x-0-0-x-x-x-5-5-x-x-x-4-4-

Stave 3:

D|--5-5-5-5-5-5-5-5-7--7--7--7--7--7--7--7--2-2-2-2-2-2-2-2-5-5-5-5-5-------
A|--8-8-8-8-8-8-8-8-10-10-10-10-10-10-10-10-5-5-5-5-5-5-5-5-8-8-8-8-8-------
F|--7-7-7-7-7-7-7-7-9--9--9--9--9--9--9--9--4-4-4-4-4-4-4-4-7-7-7-7-7-------
C|--5-5-5-5-5-5-5-5-7--7--7--7--7--7--7--7--2-2-2-2-2-2-2-2-5-5-5-5-5-x-x-x-
G|--5-5-5-5-5-5-5-5-7--7--7--7--7--7--7--7--2-2-2-2-2-2-2-2-5-5-5-5-5-x-x-x-
C|--5-5-5-5-5-5-5-5-7--7--7--7--7--7--7--7--2-2-2-2-2-2-2-2-5-5-5-5-5-x-x-x-

Stave 4:

D|-5-5-5-5-5-5-5-5-7--7--7--7--7--------
A|-8-8-7-7-8-8-8-8-10-10-10-10-10-------
F|-7-7-7-7-7-7-7-7-9--9--9--9--9--------
C|-5-5-5-5-5-5-5-5-7--7--7--7--7--x-x-x-
G|-5-5-5-5-5-5-5-5-7--7--7--7--7--x-x-x-
C|-5-5-5-5-5-5-5-5-7--7--7--7--7--x-x-x-

http://www.guitartabcreator.com
Guitar Tab Creator is intended to store guitar tab created through the tool. It currently does not support in-line text editing. Any text you place in here will be lost. If you need to comment on your tab, please use the "Tab Notes" section located below.