Sound will begin in 5 seconds

Divide

01234567891011121314151617181920212223
E
B
G
D
A
E
B
0 1 2 3 4 5 6 7 8 9 10 11 12 13 14 15 16 17 18 19 20 21 22 23
Song Science #1: How Pros Use 6 Chords to Write Hit Songs
(/) Slide Up  (\) Slide Down  (h) Hammer On  (p) Pull Off  (b) Bend (r) Release (v) Vibrato

Stave 1:

D|--------------------------------------------------
A|--------------------------------------------------
F|--------------------------------------------------
C|--------7-----------------7-----------------------
G|--------------5--8--------------5--8--------5--7--
C|--0--0-----0--------0--0-----0--------0--0--------

Stave 2:

D|--------------------------------------------------
A|--------------------------------------------------
F|--------------------------------------------------
C|--------7-----------------7-----------------------
G|--------------5--8--------------5--8--------5--7--
C|--5--5-----5--------5--5-----5--------5--5--------

Stave 3:

D|------------------------------------------------------
A|------------------------------------------------------
F|----------------------------------------10-----9--10--
C|--------8---------------------------------------------
G|--------------12-----8-----10-----8-------------------
C|--8--8-----8------8-----8------8-----8------8---------

Stave 4:

D|----------------------
A|----------------------
F|----------------------
C|--0--0--0--0--0--0--0--
G|--0--0--0--0--0--0--0--
C|--0--0--0--0--0--0--0--

Stave 5:

D|-----------------------------------
A|-----------------------------------
F|-----------------------------------
C|--------7--3--5--2--2--------------
G|-----------------------3--7--5--8--
C|--0--0-----------------------------

Stave 6:

D|--------------------------------------------------
A|--------------------------------------------------
F|--------------------------------------------------
C|----8--8--8--8--8--8------------------------------
G|----8--8--------------12--12--12--12--8--8--8--8--
C|----8--8------------------------------------------

Stave 7:

D|----------------------------------------------
A|----------------------------------------------
F|----------------------------------------------
C|----3--3--7--7--7--7--5--5--5--5--------------
G|----3--3--------------------------7--7--7--7--
C|----3--3--------------------------------------

Stave 8:

D|----------------------------------------------------------------------------------
A|--------------------------------------------------------------------11--8--10--8--
F|----------------------------------------------10--9----------10--9----------------
C|-------------------------7--3--5--3--8--8------------10--10-----------------------
G|----------3--5-----5--3--------------8--8------------10--10-----------------------
C|----0--0--------3--------------------8--8--8---------10--10-----------------------

Stave 9:

D|----------------------------------------------------------------------------------
A|----------------------------------------------------------------------------------
F|----------------------------------------------10--9-------------------------------
C|-------------------------7--3--5--3--8--8------------10--10--10--12--7--8---------
G|----------3--5-----5--3--------------8--8------------10--10----------------8--12--
C|----0--0--------3--------------------8--8--8---------10--10-----------------------

http://www.guitartabcreator.com
Guitar Tab Creator is intended to store guitar tab created through the tool. It currently does not support in-line text editing. Any text you place in here will be lost. If you need to comment on your tab, please use the "Tab Notes" section located below.