Metal Thing

Chords

01234567891011121314151617181920212223
E
B
G
D
A
E
B
0 1 2 3 4 5 6 7 8 9 10 11 12 13 14 15 16 17 18 19 20 21 22 23
(/) Slide Up  (\) Slide Down  (h) Hammer On  (p) Pull Off  (b) Bend (r) Release (v) Vibrato

Stave 1:

E|--------------------------------
B|--------------------------------
G|--------------4-----------------
D|--------2-----4--------5--------
A|--------3-----2--------2--------
E|--0--0--5--0-----0--0--0--0--0--

Stave 2:

E|--------------------------------
B|--------------------------------
G|--------------------------------
D|--------------------------------
A|--------------2-----------3--2--
E|--0--5--2--3-----3--2--0--------

Stave 3:

E|--------------------------------------------------------------------------------
B|--------------------------------------------------------------------------------
G|--------------------------------------------------------------------------------
D|--3--3--3--3--2---------9--10--9---------7--10--9--7------------7--10--9--7-----
A|--3--3--3--3--2--7--10------------10--8---------------8------8---------------7--
E|--1--1--1--1--0------------------------------------------10---------------------

							http://www.guitartabcreator.com
{"strings":[[["0","0","5","0",".","0","0","0","0","0"],[".",".","3",".","2",".",".","2",".","."],[".",".","2",".","4",".",".","5",".","."],[".",".",".",".","4",".",".",".",".","."],[".",".",".",".",".",".",".",".",".","."],[".",".",".",".",".",".",".",".",".","."]],[["0","5","2","3",".","3","2","0",".","."],[".",".",".",".","2",".",".",".","3","2"],[".",".",".",".",".",".",".",".",".","."],[".",".",".",".",".",".",".",".",".","."],[".",".",".",".",".",".",".",".",".","."],[".",".",".",".",".",".",".",".",".","."]],[["1","1","1","1","0",".",".",".",".",".",".",".",".",".",".",".",".","10",".",".",".",".",".","."],["3","3","3","3","2","7","10",".",".",".","10","8",".",".",".",".","8",".","8",".",".",".",".","7"],["3","3","3","3","2",".",".","9","10","9",".",".","7","10","9","7",".",".",".","7","10","9","7","."],[".",".",".",".",".",".",".",".",".",".",".",".",".",".",".",".",".",".",".",".",".",".",".","."],[".",".",".",".",".",".",".",".",".",".",".",".",".",".",".",".",".",".",".",".",".",".",".","."],[".",".",".",".",".",".",".",".",".",".",".",".",".",".",".",".",".",".",".",".",".",".",".","."]]],"timing":[[" "," "," "," "," "," "," "," "," "," "],[" "," "," "," "," "," "," "," "," "," "],[" "," "," "," "," "," "," "," "," "," "," "," "," "," "," "," "," "," "," "," "," "," "," "," "]],"timingvisible":false,"tabcounter":24,"stave":2,"totalstaves":3,"version":"1.0"}

Member for

7 years 10 months
Submitted by shorty on Fri, 2014-04-18 18:35