Sound will begin in 5 seconds

recording 69 70 71

Chords
01234567891011121314151617181920212223
E
B
G
D
A
E
B
0 1 2 3 4 5 6 7 8 9 10 11 12 13 14 15 16 17 18 19 20 21 22 23
Song Science #1: How Pros Use 6 Chords to Write Hit Songs
(/) Slide Up  (\) Slide Down  (h) Hammer On  (p) Pull Off  (b) Bend (r) Release (v) Vibrato

Stave 1:

E|--15--15--15--17--15--15--19--15--15--17--15--14--15--14-------------14-------------------------------
B|----------------------------------------------------------17--15h17------17--15--12-----12b13--12b13--
G|------------------------------------------------------------------------------------------------------
D|------------------------------------------------------------------------------------------------------
A|------------------------------------------------------------------------------------------------------
E|------------------------------------------------------------------------------------------------------

Stave 2:

E|---------------------------
B|---------------------------
G|--14--14p12h14--14p12------
D|-----------------------14--
A|---------------------------
E|---------------------------

Stave 3:

E|-----------------------------------------------
B|--8--8-----8--8--------------------------------
G|--9--9-----9--9--------------------------------
D|--9--9-----9--9--9--7--7--------7--7--7--5--5--
A|--7--7-----7--7--9--7--7--------7--7--7--5--5--
E|-----------------7--5--5--------5--5--5--3--3--

Stave 4:

E|------------------------------
B|------------------------------
G|--------11--------12-------9--
D|--9/12------9/12------7/9-----
A|------------------------------
E|------------------------------

Stave 5:

E|-----8-----8-----7-----7-----5-----5-----3-----3--------
B|--5-----5-----5-----5-----5-----5-----5-----3-----3--5--
G|-----------------------------------------------------4--
D|--------------------------------------------------------
A|--------------------------------------------------------
E|--------------------------------------------------------

Stave 6:

E|--------------------------------------
B|--------------------------------------
G|--14--14-----14--14-----14------------
D|----------------------------14p12h14--
A|--------------------------------------
E|--------------------------------------

http://www.guitartabcreator.com
Guitar Tab Creator is intended to store guitar tab created through the tool. It currently does not support in-line text editing. Any text you place in here will be lost. If you need to comment on your tab, please use the "Tab Notes" section located below.