Sound will begin in 5 seconds

War For Drugs

01234567891011121314151617181920212223
E
B
G
D
A
E
B
0 1 2 3 4 5 6 7 8 9 10 11 12 13 14 15 16 17 18 19 20 21 22 23
Song Science #1: How Pros Use 6 Chords to Write Hit Songs
(/) Slide Up  (\) Slide Down  (h) Hammer On  (p) Pull Off  (b) Bend (r) Release (v) Vibrato

Stave 1:

E|-------------------
B|-------------------
G|--2--------3\6-----
D|--2--2--3--3-6--6--
A|--0--2--3--1-4--6--
E|-----0--1-------4--

Stave 2:

E|-----------------------------------------------|-----|-------|--
B|-----------------------------------------------|-----|-------|--
G|-----------------------------------------------|-----|-------|--
D|--2-----------------------------------------5--|-----|-------|--
A|--2-------------5---------------------------3--|--3--|--5/3--|--
E|--0--0--0--0--3h5--0--0--7h8--0--0--5h7--0-----|--1--|--3-1--|--

Stave 3:

E|----------------------------------------------------------------------------------
B|----------------------------------------------------------------------------------
G|----------------------------------------------------------------------------------
D|--2-------------------------------------------------------------------------------
A|--2-----------2-2-----------2-----------3p2-----3-5--2-----------2-2--------------
E|--0--0--0--0--1p0--0--0--0--0--0--0--0--1-0--0--1\3--0--0--0--0--1p0--0--0--0-----

Stave 4:

E|-----------------------|----------------------------
B|-----------------------|----------------------------
G|-----------------------|-----------------------5v--/
D|-----------------------|----------------------------
A|----5-----7h8-----5h7--|----5-----7h8-----5h7-------
E|--3h5--0-------0-------|--3h5--0-------0------------

http://www.guitartabcreator.com
Guitar Tab Creator is intended to store guitar tab created through the tool. It currently does not support in-line text editing. Any text you place in here will be lost. If you need to comment on your tab, please use the "Tab Notes" section located below.