Sound will begin in 5 seconds

TS$%#!

01234567891011121314151617181920212223
E
B
G
D
A
E
B
0 1 2 3 4 5 6 7 8 9 10 11 12 13 14 15 16 17 18 19 20 21 22 23
Song Science #1: How Pros Use 6 Chords to Write Hit Songs
(/) Slide Up  (\) Slide Down  (h) Hammer On  (p) Pull Off  (b) Bend (r) Release (v) Vibrato

Stave 1:

E|--------------------------------
B|--------------------------------
G|--------------------------------
D|--9-----------9-----------9-----
A|--7--0--0--0--7--0--0--0--7--0--
E|--------------------------------

Stave 2:

E|-----------------------------------
B|-----------------------------------
G|-----------------------------------
D|--10-----------10-----------10-----
A|--8---0--0--0--8---0--0--0--8---0--
E|-----------------------------------

Stave 3:

E|----------------------------------------------------------
B|----------------------------------------------------------
G|----------------------------------------------------------
D|--6-----------6-----------6-----7-----------7--------7/9--
A|--4--0--0--0--4--0--0--0--4--0--5--0--0--0--5--0--0--5-7--
E|----------------------------------------------------------

Stave 4:

E|-----------------------------------------------------------
B|-----------------------------------------------------------
G|-----------------------------------------------------------
D|--6-----------6-----------6-----5-----------5-----------5--
A|--4--0--0--0--4--0--0--0--4--0--3--0--0--0--3--0--0--0--3--
E|-----------------------------------------------------------

Stave 5:

E|----------------------------------------------------------------
B|----------------------------------------------------------------
G|----------------------------------------------------------------
D|--6-----------6-----------6-------------------------------------
A|--4--0--0--0--4--0--0--0--4--0--6--8--9--8-----------------8/5--
E|--------------------------------------------7-----------0--6-3--

Stave 6:

E|--------------------------------------------------------------------------------
B|--------------------------------------------------------------------------------
G|--------------------------------------------------------------------------------
D|--------------------------1-----5-----4-----3-----------------------------------
A|--2--------3--------2-----1-----3-----2-----1--2--------3--------2--------------
E|--0--0--0--1--0--0--0--0-----0-----0-----0-----0--0--0--1--0--0--0--0-----------

Stave 7:

E|----------------
B|----------------
G|--------------8-
D|--------------x--/
A|--5-----7-----6-
E|--3--0--5--0----

Stave 8:

E|----------------------------
B|----------------------------
G|----------------------------
D|----------------------------
A|--5-----7-----8/7-----5-----
E|--3--0--5--0--6-5-----3-----

Stave 9:

E|--------------------------------------------------------------------------------------
B|--------------------------------------------------------------------------------------
G|--------------------------------------------------------------------------------------
D|----------------------------5--5-------------------------------------------5-------7--
A|--2-------------------------3--3--------------2-----------3----------------3-------5--
E|--0--0--0--0--0--0--0--2\3--------0--0--0--0--0--0--0--0--1--0--0--0--2\3-----3\5-----

Stave 10:

E|--------------------------------------------------------------------------------------------
B|--------------------------------------------------------------------------------------------
G|--------------------------------------------------------------------------------------------
D|--9-------------------------10--10--------------9-----------10----------------10--------12--
A|--7--------------------7\8--8---8---------------7-----------8------------7\8--8---8\10--10--
E|-----0--0--0--0--0--0---------------0--0--0--0-----0--0--0------0--0--0---------------------

Stave 11:

E|--------------------------------------------------------------------------------------
B|--------------------------------------------------------------------------------------
G|--------------------------------------------------------------------------------------
D|--9-------------------------10--10--------------9-----------7----------------10-------
A|--7--------------------7\8--8---8---------------7-----------5-----------7\8--8---8\9--
E|-----0--0--0--0--0--0---------------0--0--0--0-----0--0--0-----0--0--0----------------

Stave 12:

E|--------------------------------
B|--------------------------------
G|----------------------9--7--9b9/
D|--11b11--12--11--9/7------------
A|--------------------------------
E|--------------------------------

http://www.guitartabcreator.com
Guitar Tab Creator is intended to store guitar tab created through the tool. It currently does not support in-line text editing. Any text you place in here will be lost. If you need to comment on your tab, please use the "Tab Notes" section located below.