Sound will begin in 5 seconds

Parisienne Walkways

Chords
01234567891011121314151617181920212223
E
B
G
D
A
E
B
0 1 2 3 4 5 6 7 8 9 10 11 12 13 14 15 16 17 18 19 20 21 22 23
Song Science #1: How Pros Use 6 Chords to Write Hit Songs
(/) Slide Up  (\) Slide Down  (h) Hammer On  (p) Pull Off  (b) Bend (r) Release (v) Vibrato

Stave 1:

E|--------|--7--5--3--2--0--------7--5--5--3--2--0-----------5--3--0--2--3--2--0--------------3--2--2--
B|--------|--0--------------3--1-----5--3-----1-----3--1--0-----0--------0--------3--1--0--------1--0--
G|--------|--0-----------------0-----5--2-----2-----------0-----0--------0-----------------2-----2--2--
D|--------|--------------------2--------0-----0-----------0--------------------------------2-----------
A|--7/----|--------------------0-----0-----------------------------------3-----------------3--------2--
E|----7/3/|--0--------------------------------------------3-----3--------------------------2-----------

Stave 2:

E|--0-----------------|--------|--7--5--3--2--0--------7--5--5--3--2--0-----------5--3--0--2--3--2--0--
B|-----4--1--0--------|--------|--0--------------3--1-----5--3-----1-----3--1--0-----0--------0--------
G|--------------2--0--|--------|--0-----------------0-----5--2-----2-----------0-----0--------0--------
D|-----------------2--|--------|--------------------2--------0-----0-----------0-----------------------
A|--------------------|--7/----|--------------------0-----0-----------------------------------3--------
E|-----------------0--|----7/3/|--0--------------------------------------------3-----3-----------------

Stave 3:

E|--------------3--2--2--0-----------0--0--0--|--4--5--7--10--10--8--8-----2--3--5--8--8--7--7-----0--2--
B|--3--1--0--------1--0-----4--1--4--0--2--0--|---------------8------5-----1-----------0-----------0-----
G|-----------2-----2--2--------------1--2--1--|---------------9------5-----2-----------0-----------0-----
D|-----------2--------------------------------|-------------------------0--------------------------------
A|-----------3--------2-----------------0-----|---------------0------0--------------------------3--------
E|-----------2-----------------------0-----0--|----------------------------------------3-----------------

Stave 4:

E|--3--7--7--5--5--------------0--2--5--5--3--0--|--4--5--7--13--12--10--12--8-----2--3--5--8--8--10--7--
B|--------5-----------------4-----------0-----0--|-------------------8-------5-----1-----------0---------
G|--------5--------------2--------------0-----0--|-------------------9-------5-----2-----------0---------
D|--------------------4--------------------------|------------------------------0------------------------
A|--------0--------2-----------------------------|-------------------0-------0---------------------------
E|--------------------------------------0-----0--|---------------------------------------------3---------

Stave 5:

E|-----0--2--3--7--7--5--5--3--5--6--3--2-----------3--0--2--3--2--
B|-----0-----------5--------------5-----------------------0-----0--
G|-----0-----------5--------------6--------------2--------2--3--2--
D|--------------------------------5-----------2--------------2-----
A|--3--------------0-----------------------3--------------2--3--2--
E|--------------------------------------2--------------------------

http://www.guitartabcreator.com
Guitar Tab Creator is intended to store guitar tab created through the tool. It currently does not support in-line text editing. Any text you place in here will be lost. If you need to comment on your tab, please use the "Tab Notes" section located below.