Sound will begin in 5 seconds

Congo By CarsonAnd Seth's Mayhem Of Death

01234567891011121314151617181920212223
E
B
G
D
A
E
B
0 1 2 3 4 5 6 7 8 9 10 11 12 13 14 15 16 17 18 19 20 21 22 23
Song Science #1: How Pros Use 6 Chords to Write Hit Songs
(/) Slide Up  (\) Slide Down  (h) Hammer On  (p) Pull Off  (b) Bend (r) Release (v) Vibrato

Stave 1:

E|--------------------------------------9--11--12--9--11--12--15--17--18--15--17--18--15--17--18--18--17--
B|-----------------------5--------------------------------------------------------------------------------
G|--------------7--6--5-----7-----------------------------------------------------------------------------
D|--7--7--5--5--------------------------------------------------------------------------------------------
A|--------------------------------------------------------------------------------------------------------
E|-----------------------------3--5--6--------------------------------------------------------------------

Stave 2:

E|--3--3--------------------------------------5--7--8--5--7--5--7--8--8--7--6--5--
B|--------2-----------------------------------------------------------------------
G|-----------0--------------------------------------------------------------------
D|--------------------------------------------------------------------------------
A|-----------------4--5-----4--5--6--7--6--6--------------------------------------
E|--------------3--------3--------------------------------------------------------

Stave 3:

E|--------------3--2--2--2--------------1--1--1--2--4--4--4--
B|-----------3-----4--4--4--1--1--1--1--3--3--3--4--6--6--6--
G|--------3-----------------3--3--3--3-----------------------
D|--3--3-----------------------------------------------------
A|-----------------------------------------------------------
E|-----------------------------------------------------------

http://www.guitartabcreator.com
Guitar Tab Creator is intended to store guitar tab created through the tool. It currently does not support in-line text editing. Any text you place in here will be lost. If you need to comment on your tab, please use the "Tab Notes" section located below.