Sound will begin in 5 seconds

since i've been loving you

01234567891011121314151617181920212223
E
B
G
D
A
E
B
0 1 2 3 4 5 6 7 8 9 10 11 12 13 14 15 16 17 18 19 20 21 22 23
Song Science #1: How Pros Use 6 Chords to Write Hit Songs
(/) Slide Up  (\) Slide Down  (h) Hammer On  (p) Pull Off  (b) Bend (r) Release (v) Vibrato

Stave 1:

E|--------12--11--8-----11--8-----------------------------------------------------------------
B|--8--9-------------9---------9--9--9--8-----------------------------------------------------
G|-----------------------------------------10--8----------------------------------------------
D|------------------------------------------------10\8--6-----8p6-----6-----5h6r5-------------
A|---------------------------------------------------------8-------8-----8---------8\6--3--3--
E|--------------------------------------------------------------------------------------------

Stave 2:

E|-----8---------------------------------------11--13--11--13b15--13b15--15r13--11--13--13b15--11--
B|--8-----12--8----------------------------13------------------------------------------------------
G|---------------10b12--10--8----------8v----------------------------------------------------------
D|-----------------------------10--10--------------------------------------------------------------
A|-------------------------------------------------------------------------------------------------
E|-------------------------------------------------------------------------------------------------

Stave 3:

E|--13--11--13b15--13b15--11--15r13--11--13--13b15--11----16--15------------------------------------
B|----------------------------------------------------------------18------9--10--12--9--10----------
G|--------------------------------------------------------------------10--------------------10--10--
D|--------------------------------------------------------------------------------------------------
A|--------------------------------------------------------------------------------------------------
E|--------------------------------------------------------------------------------------------------

Stave 4:

E|----------------11---------------------------------------------------------------------------------------
B|--9--11--11b13------11b13v----13--16--13--16b18r16--13--16b18r16--13--16b18r16--13--18b20--18b20--18b20--
G|---------------------------------------------------------------------------------------------------------
D|---------------------------------------------------------------------------------------------------------
A|---------------------------------------------------------------------------------------------------------
E|---------------------------------------------------------------------------------------------------------

Stave 5:

E|-------------------------------------------
B|--18--18b20--18--18b20--18--18b20--16------
G|---------------------------------------17--
D|-------------------------------------------
A|-------------------------------------------
E|-------------------------------------------

http://www.guitartabcreator.com
Guitar Tab Creator is intended to store guitar tab created through the tool. It currently does not support in-line text editing. Any text you place in here will be lost. If you need to comment on your tab, please use the "Tab Notes" section located below.