Sound will begin in 5 seconds

Chill Cascade BASS

01234567891011121314151617181920212223
E
B
G
D
A
E
B
0 1 2 3 4 5 6 7 8 9 10 11 12 13 14 15 16 17 18 19 20 21 22 23
Song Science #1: How Pros Use 6 Chords to Write Hit Songs
(/) Slide Up  (\) Slide Down  (h) Hammer On  (p) Pull Off  (b) Bend (r) Release (v) Vibrato

Stave 1:

G|-----------------------------------------------------------|-----------------------|--
D|-------------------10--------------------------------------|-------------------10--|--
A|-----------------------5-----------------------------------|-----------------------|--
D|--8--8--7--10--10---------0--0--0--0--0--0--0--0--0--0--0--|--8--8--7--10--10------|--

Stave 2:

G|----------------------------------------|----------------------------------------------|--
D|----------------------------------------|----------------------------------------------|--
A|-----5--------5-------------------------|--------------3--------3--------3-------------|--
D|--0-----0--0-----0--0--3p0--5--3--0--6--|--3--3--0--3-----0--3-----0--3-----0--3/6--3--|--

Stave 3:

G|--------------|-------------------|--------------|---------------------------|--
D|--------------|-------------------|--------------|---------------------------|--
A|-----6--5-----|--------6--5-------|--------6--5--|---------------------------|--
D|--0--------3--|--0--0--------3h6--|--0--0--------|--3--5h6--5--3--5h6--5--3--|--

Stave 4:

G|------------------------------------------|------------------------------------------------|--
D|------------------------------------------|--------------------------------------------10--|--
A|-------------8-------------3----------10--|--------5-----8-----7-----10-----8-----7h8------|--
D|--8--8--7h8-----8p7--3--3-----10--10------|--0--0-----0-----0-----0------0-----0-----------|--

Stave 5:

G|------------------------------------------|----------------------------------------------|--
D|------------------------------------------|----------------------------------------------|--
A|-------------8---------------10--------3--|------------------------------12--8--10--7h8--|--
D|--8--8--7h8-----8p7--10--10------3--3-----|--12--12--12--12--12--12--12------------------|--

Stave 6:

G|-----------------------------|---------------
D|-----------------------------|---------------
A|-----------------------------|---------------
D|--0--0--12/0--0--12\0--0--12\|--0--3h5--0--6\

http://www.guitartabcreator.com
Guitar Tab Creator is intended to store guitar tab created through the tool. It currently does not support in-line text editing. Any text you place in here will be lost. If you need to comment on your tab, please use the "Tab Notes" section located below.