Sound will begin in 5 seconds

Experimental

01234567891011121314151617181920212223
E
B
G
D
A
E
B
0 1 2 3 4 5 6 7 8 9 10 11 12 13 14 15 16 17 18 19 20 21 22 23
Song Science #1: How Pros Use 6 Chords to Write Hit Songs
(/) Slide Up  (\) Slide Down  (h) Hammer On  (p) Pull Off  (b) Bend (r) Release (v) Vibrato

Stave 1:

E|--0--2--3--0--2--3--5--7--------------------------------------2--3--5--------21br21--19v--
B|-----------------------------------------------------2--4--5------------------------------
G|-----------------------------------------------2--4---------------------------------------
D|-----------------------------------------2--4---------------------------------------------
A|--------------------------------0--2--4---------------------------------------------------
E|--------------------------12\0-----------------------------------------12\0---------------

Stave 2:

E|--------------------------------------------------9--10--12/18v--18--17--15----------------------------------------------
B|-------------------------------------------8--10-----------------------------17--15--14----------------------------------
G|------------------7--9--10--------6--7--9------------------------------------------------15--14--------------------------
D|------------7--8------------7--8-----------------------------------------------------------------15--14--12--------------
A|--7--8--10---------------------------------------------------------------------------------------------------13--12--10--
E|-------------------------------------------------------------------------------------------------------------------------

Stave 3:

E|--
B|--
G|--
D|--
A|--
E|--

http://www.guitartabcreator.com
Guitar Tab Creator is intended to store guitar tab created through the tool. It currently does not support in-line text editing. Any text you place in here will be lost. If you need to comment on your tab, please use the "Tab Notes" section located below.