DragonBorn Created By Esty543 on 2020-05-25
(/) Slide Up  (\) Slide Down  (h) Hammer On  (p) Pull Off  (b) Bend (r) Release (v) Vibrato

Stave 1:

E|--------------------0--2--------2--5--0-----2h0--------------------------------------0--2-----------2--5--7-----7-----5--9--7--7--9--10-----9-----7-----5-----3-----2-----0-----0-----------2--0-------------------------------------------------------------------------------------------------------------------------------------------------------------------------0--2--0----------------------------------------------------------------------------------------------------------------------------------------------------------------------------------------------------------------10h9--10-----10--9--10-----9--10--12--10--9--7-----7--5--7-----7--5--7-----5--7--9--10--5--7-----10h9--10-----10--9--10-----9--10--12--10--9--7-----7--5--7-----7--5--7-----5--7--9--10--5--7--
B|-----2--3--------3-------------------------------3--2-----------------2--3--------3------------------------------------------------------------------------------------------------------3-----------------3--2--------------------------------------------------------------------------2h3h2-----------------------------------2h3h2--3--3--3--3--3--3--3--3--3--3--3-----------3--3--3--3--3--3--3--3--3--3-----3h2--3--3h2--3-----2--3--5--3--2--------------------------------------------------3h2--3-----3h2--3-----2--3--5-----3--2----------------------------------------------------------------------------------------------------------------------------------------------------------------------------------------------------------------------------------------------------
G|--4----------------------------------------------------4-----------4--------------------------------------0------------------------------------------------------------------------------------------------------4-----4-----4-----2-----2-----2--------4--4--4--4--4--4--4--4--4--4--4---------4--4--4--4--4--4--4--4--4--4--4----------------------------------------------------------------------------------------------------------------------4-----4--2--4-----4--2--4-----2--4--6--7--2--4------------------------------------------4-----4--2--4-----4--2--4-----2--4--6--7--2--4-------------------------0------------------------------------0-----------------------------------------------------------0------------------------------------0------------------------------------
D|-----------------------0----------------------------------------------------------------0---------------------------------------------------------------0--------------------------------------------------------------------------------------------------------------------------------------------------------------------------------------------------------------------------------------------------------------------------------------------------------------------------------------------------------------------------------------------------------------------------------------------------------------------------------------------------------------------------------------------------------------------------------------------------------------------------------------
A|--------2-----------------------------0----------------------------------2---------------------------------------------------------------------------------------------------------------------0--------------------------------------------------------2-----------------0--------0------------2-----------------0---------------------2-----------------0--------0--------------2-----------------0-------------------2-------------------0--------------------------------------------0--------2-------2----------------------0-----------------------------------------------0--------2---------------------------------------0----------------------------------------------0-------------------------------------------------0----------------------------------------------0------------
E|-------------------------------------------------------3--------------------------------------------------------------------0--------7------------------------------------3--------------------------------------0-----------------2-----------------------------3---------------------------------------3-----------------0---------------------3-----------------------------------------3-----------------0------------------3--------------------0-----------3-----------0---------------------------------------3-----------------------0-----------3-----------0--------------------------------7--------------------------------------0-----------------------0---------------------7-----------7--------------------------------------0-----------------------0---------------------7--

							http://www.guitartabcreator.com 
Glory to Hong Kong (Overdrive) Created By ktchan on 2020-05-25
(/) Slide Up  (\) Slide Down  (h) Hammer On  (p) Pull Off  (b) Bend (r) Release (v) Vibrato

Stave 1:

E|----------------------------
B|----------------------------
G|--------------9--7--7-------
D|--9\10--9--7-----------10v--
A|----------------------------
E|----------------------------

Stave 2:

E|--------------------------------------------------------------------------------------------------------------------------------------
B|---------------------------------------------------------------------8b9--------------------------------------------------------------
G|-------------------------------------8b9--9--10--7--7--9--10--9-----------10--9--7--7--9--10--10b11--9--7----------------9--7--7------
D|--------10--10--12--9--9--10--7--10------------------------------10----------------------------------------10--10--9--7-----------10--
A|--9\10--------------------------------------------------------------------------------------------------------------------------------
E|--------------------------------------------------------------------------------------------------------------------------------------

Stave 3:

E|------------------------------------------------------------------------------------------------------------------------------------------------------------
B|-------------------------------------------------------------------------------13--13--12--10--10--10--12--13--13--13--13--13--13--13--13--13--13--15--12v--
G|---------------------------10--8\9v------9--10--10--10--10--10\12--7--9--9\12-------------------------------------------------------------------------------
D|--9--10--12--9--9--------------------12---------------------------------------------------------------------------------------------------------------------
A|-------------------10--10-----------------------------------------------------------------------------------------------------------------------------------
E|------------------------------------------------------------------------------------------------------------------------------------------------------------

Stave 4:

E|------------------------------------------------------------11b12--12--13--10--10--12--13--12--------------14b16--13--12--10--10--12--13--15--12--10------------------12--10--10-------
B|--------------11b12--11b12--15--12--12--13--10--13--13--13-------------------------------------13--13--13---------------------------------------------13--13--12--10--------------13v--
G|--12--12--12---------------------------------------------------------------------------------------------------------------------------------------------------------------------------
D|---------------------------------------------------------------------------------------------------------------------------------------------------------------------------------------
A|---------------------------------------------------------------------------------------------------------------------------------------------------------------------------------------
E|---------------------------------------------------------------------------------------------------------------------------------------------------------------------------------------

							http://www.guitartabcreator.com 
Glory to Hong Kong (Basic) Created By ktchan on 2020-05-24
(/) Slide Up  (\) Slide Down  (h) Hammer On  (p) Pull Off  (b) Bend (r) Release (v) Vibrato

Stave 1:

E|-------------------------
B|-------------------------
G|------------9--7--7------
D|--10--9--7-----------10--
A|-------------------------
E|-------------------------

Stave 2:

E|-------------------------------------------------------------------------------------------------------------------------------
B|------------------------------------------------------------------10-----------------------------------------------------------
G|-----------------------------------10--9--10--7--7--9--10--9----------10--9--7--7--9--10--12--9--7----------------9--7--7------
D|------10--10--12--9--9--10--7--10-----------------------------10------------------------------------10--10--9--7-----------10--
A|--10---------------------------------------------------------------------------------------------------------------------------
E|-------------------------------------------------------------------------------------------------------------------------------

Stave 3:

E|---------------------------------------------------------------------------------------------------------------------------------------------------
B|-----------------------------------------------------------------------13--13--12--10--10--10--12--13--13--13--13--13--13--13--13--13--13--15--12--
G|---------------------------10--9------9--10--10--10--10--12--7--9--12------------------------------------------------------------------------------
D|--9--10--12--9--9-----------------12---------------------------------------------------------------------------------------------------------------
A|-------------------10--10--------------------------------------------------------------------------------------------------------------------------
E|---------------------------------------------------------------------------------------------------------------------------------------------------

Stave 4:

E|------------------------------------------------------13--12--13--10--10--12--13--12--------------17--13--12--10--10--12--13--15--12--10------------------12--10--10------
B|--------------13--13--15--12--12--13--10--13--13--13----------------------------------13--13--13------------------------------------------13--13--12--10--------------13--
G|--12--12--12--------------------------------------------------------------------------------------------------------------------------------------------------------------
D|--------------------------------------------------------------------------------------------------------------------------------------------------------------------------
A|--------------------------------------------------------------------------------------------------------------------------------------------------------------------------
E|--------------------------------------------------------------------------------------------------------------------------------------------------------------------------

							http://www.guitartabcreator.com 
NOFX malachi crunch guitar Created By LUKACAR24 on 2020-05-24
(/) Slide Up  (\) Slide Down  (h) Hammer On  (p) Pull Off  (b) Bend (r) Release (v) Vibrato

Stave 1:

E|---------------------------------
B|---------------------------------
G|---------------------------------
D|---------------------------------
A|-4-4-7-4-4-4-6-4-4-4-7-4-6p4-4-4-
E|---------------------------------

Stave 2:

E|-------------------------
B|-------------------------
G|-------------------------
D|-------------4-4-4-4-4-4-
A|-7-7-7-7-7-7-2-2-2-2-2-2-
E|-5-5-5-5-5-5-------------

Stave 3:

E|-------------------------------------------------
B|-------------------------------------------------
G|-------------------------------------------------
D|-6-6-6-6-6-6-6-6-6-6-6-6-7-7-7-7-7-7-4-4-4-4-4-4-
A|-4-4-4-4-4-4-4-4-4-4-4-4-7-7-7-7-7-7-2-2-2-2-2-2-
E|-------------------------5-5-5-5-5-5-------------

Stave 4:

E|---------------------------------
B|---------------------------------
G|---------------------------------
D|-6-6-6-------------------------6-
A|-4-4-4-4-0-2-0-4-2-2-2-4-0-2-0-4-
E|-------2-0-0-0-2-0-0-0-2-0-0-0---

Stave 5:

E|---------------------
B|---------------------
G|---------------------
D|-6-6-6-------------6-
A|-4-4-4-4-0-2-0-2-4-4-
E|-------2-0-0-0-0-2---

Stave 6:

E|-------------------------------------------------
B|-------------------------------------------------
G|-------------------------------------------------
D|-6-6-6-6-6-6-4-4-4-4-4-4-------------4-4-4-4-4-4-
A|-4-4-4-4-4-4-2-2-2-2-2-2-7-7-7-7-7-7-2-2-2-2-2-2-
E|-------------------------5-5-5-5-5-5-------------

Stave 7:

E|---------------------------
B|---------------------------
G|---------------------------
D|---------------------------
A|-7-7-7-7-7-6-6-6-4-4-4-4-6-
E|-5-5-5-5-5-4-4-4-2-2-2-2-4-

Stave 8:

E|---------------------------
B|---------------------------
G|---------------------------
D|-6-6-6-6-6-9-9-9-8-8-8-8-6-
A|-4-4-4-4-4-7-7-7-6-6-6-6-4-
E|---------------------------

Stave 9:

E|---------------------
B|---------------------
G|---------------------
D|-6-6-6-6-6-6-6-9-8-6-
A|-4-4-4-4-4-4-4-7-6-4-
E|---------------------

Stave 10:

E|-------------
B|-------------
G|-------------
D|-------------
A|-7-7-7-6-4-6-
E|-5-5-5-4-2-4-

Stave 11:

E|-------------
B|-------------
G|-------------
D|-6-6-6-9-8-6-
A|-4-4-4-7-6-4-
E|-------------

Stave 12:

E|---------------------------------
B|---------------------------------
G|---------------------------------
D|-6-6-6-6-6-6-6-6-6-6-6-6-6-6-6-6-
A|-4-4-4-4-4-4-4-4-4-4-4-4-4-4-4-4-
E|---------------------------------

Stave 13:

E|---------------------------------
B|---------------------------------
G|---------------------------------
D|---------------------------------
A|-7-7-7-7-7-7-7-7-7-7-7-7-7-7-7-7-
E|-5-5-5-5-5-5-5-5-5-5-5-5-5-5-5-5-

Stave 14:

E|---
B|---
G|-6-
D|---
A|-4-
E|---

Stave 15:

E|-------------
B|-------------
G|-6----8----8-
D|-------------
A|-4----6----7-
E|-------------

Stave 16:

E|-------------------------
B|-------------------------
G|-6-7-8-6-7-8-6-7-8-6-7-8-
D|-------------------------
A|-4-6-7-4-6-7-4-6-7-4-6-7-
E|-------------------------

Stave 17:

E|-----------
B|-----------
G|-----------
D|-7-7-7-7-7-
A|-7-7-7-7-7-
E|-5-5-5-5-5-

Stave 18:

E|-----------
B|-----------
G|-6-6-6-6-6-
D|-6-6-6-6-6-
A|-4-4-4-4-4-
E|-----------

Stave 19:

E|-------
B|-------
G|-------
D|-9-8-6-
A|-7-6-4-
E|-------

Stave 20:

E|------------------------
B|------------------------
G|-6----------------------
D|------6-6-6-6-6-6-6-6---
A|-4----4-4-4-4-4-4-4-4---
E|------------------------

Stave 21:

E|--------------------------
B|--------------------------
G|-6-8-9--------------------
D|--------------------------
A|-4-6-7----7-7-7-7-7-7-7-7-
E|----------5-5-5-5-5-5-5-5-

Stave 22:

E|----------------------------
B|----------------------------
G|-9-8-9-6--------------------
D|------------6-6-6-6-6-6-6-6-
A|-7-6-7-4----4-4-4-4-4-4-4-4-
E|----------------------------

Stave 23:

E|----
B|----
G|-16\
D|----
A|-17-
E|----

							http://www.guitartabcreator.com 
The Wild Hunt: Bridge 2 and 3 Created By scottzinola on 2020-05-24
(/) Slide Up  (\) Slide Down  (h) Hammer On  (p) Pull Off  (b) Bend (r) Release (v) Vibrato

Bridge 2 (2x)

D|---------------------------------------------------|-
A|---------------------------------------------------|-
F|---------------------------------------------------|-
C|---------------------------------------------------|-
G|-------------------------------------------4-4-1-1-|-
C|-5-5-5-5-8-5-5-5-5-5r5-4-7-5-5-5-5-8-5-4-4---------|-



D|------------------------------------------------------------------------|-
A|------------------------------------------------------------------------|-
F|------------------------------------------------------------------------|-
C|---------------------------------------------1----4----5----8----7----4-|-
G|---------------------------------------------1----4---------------------|-
C|-5-5-5-5-8-5-5-5-5-5-8-5-4-7-5-5-5-5-8-5-5-5-1----4----5----8----7----4-|-

Bridge 3: Intro | Breakdown (8x)

D|--------|----------------------------------------|-
A|--------|----------------------------------------|-
F|--------|----------------------------------------|-
C|-5-5----|-5-----5--------------------------------|-
G|--------|---0-0---0------0-0-0----0-0-0----0-0-0-|-
C|-4-4----|-4-1-1-4-1----0-1-1-1----1-1-1----1-1-1-|-

Repeat Bridge 2 | Bridge 2b | End of bridge

D|--------------------------------------------|---
A|--------------------------------------------|---
F|--------------------------------------------|---
C|------------------------------------------1-|-4-
G|------------------------------------------1-|-4-
C|-5-5-5-5-8-5----4-4----4-4-5-5-5-5-8-5----1-|-4-

							http://www.guitartabcreator.com