Mama Guitar 1 Created By PetsieX2 on 2020-10-23
(/) Slide Up  (\) Slide Down  (h) Hammer On  (p) Pull Off  (b) Bend (r) Release (v) Vibrato

Stave 1:

E|-------------------------------------------------------------------------------------------------
B|-------------------------------------------------------------------------------------------------
G|-------------------------------------------------------------------------------------------------
D|-------------------------------------------------------------------7--5--4--2--2--2--2-----------
A|--7--7--7--7--7--7--7--7--7--7--10--10--6--6--6--7--9--7--7--9--9-----------------------9--9--7--
E|-------------------------------------------------------------------------------------------------

Stave 2:

E|----------------------------------------------------------------------------------12--
B|------------------------------------------------------------------------------12------
G|--5--7------------------5------------------9--11--9--7--7-----------------------------
D|--5--7---------------5--5---------------3--x--x---x--x--x-----------------------------
A|--3--5--5--7--5v--0--5--3--3--5--3v--0--3--7--9---7--5--5-----------2--3/6/7----------
E|---------------------3------------------1------------------0--2--3--------------------

Stave 3:

E|-----------------------------------------------------------------------------------------------------------
B|-----------------------------------------------------------------------------------------------12--11--12--
G|-----------------------------------------------------------------------------------------------12--11--12--
D|-------------------------------------------------------------------7--5--4--4h5\2--------------------------
A|--7--7--7--7--7--7--7--7--7--7--10--10--6--6--6--7--9--7--7--9--9------------------7--7--9--9--------------
E|-----------------------------------------------------------------------------------------------------------

Stave 4:

E|------------------------------|-------------------------------------------------------------------------------
B|------------------------------|-------------------------------------------------------------------------------
G|------------------------------|----------------------------------------------------------------------------9--
D|---------------7--------------|------------7----------------------------7--5--4--2-----9--8--9-------------9--
A|--7--7--9--10-----10--9p7--7--|--7--9--10-----10--9--7--7--6--7--9--10--------------7-----------10--10--9--7--
E|------------------------------|-------------------------------------------------------------------------------

Stave 5:

E|--------------------------------------------------------------------------------
B|--------------------------------------------------------------------------------
G|--5--7------------------5------------------9--11--9--7--7--------------5--------
D|--5--7---------------5--5---------------3--x--x---x--x--x--------------5--4--2--
A|--3--5--5--7--5v--0--5--3--3--5--3v--0--3--7--9---7--5--5-----------2--3--3--2--
E|---------------------3------------------1------------------0--2--3--------2--0--

Stave 6:

E|----------------------------------------------------------------------
B|----------------------------------------------------------------------
G|--9--12--8--8--9--11--9--11--14--12--11--------------9--11------------
D|--x--x---x--x--x--x---x--x---x---x---x---------------x--x-------------
A|--7--10--6--6--7--9---7--9---12--10--9---9h10--9--7--7--9---6--9--7v--
E|----------------------------------------------------------------------

Stave 7:

E|---------------|-------------------------------------------|-----------------------------
B|---------------|-------------------------------------------|-----------------------------
G|---------------|-------------------------------------------|-----------------------------
D|---------------|-------------------------------------------|-----9--8--8h9-----9---------
A|-----7---------|-------------------------------------7--6--|--7-------------7-----9--10--
E|--0-----5--7v--|--7--8--5v--7--8--6v--7--8--5--7--5--------|-----------------------------

Stave 8:

E|----------------------------------------------------
B|----------------------------------------------------
G|----------------------------------------------------
D|----------------------------------------------------
A|--9--10--7v--9--10--8v--9--10--7v--10--9--7h9p7--6--
E|----------------------------------------------------

Stave 9:

E|---------------------------------------------------------
B|--5--12--10--8--10--12--7--8--5--------------------------
G|-----14--12----------------------4--5--7--5--4--3--3h4v--
D|---------------------------------------------------------
A|---------------------------------------------------------
E|---------------------------------------------------------

Stave 10:

E|-----------------------------------------------------------------------------------------------
B|-----------------------------------------------------------------------------------------------
G|-----------------------------------------------------------------------------------------------
D|---------------------------------------------------------7--5--4--2-----------------7----------
A|-----7--5--3--2--2/7--7--7--9b10r9--7--6--6--7--9--7--9-----------------7--7--7--9-----10--9v--
E|--7------------------------------------------------------------------7-------------------------

							http://www.guitartabcreator.com 
Adam Shel Chalomot Created By matiasbarmat on 2020-10-22
(/) Slide Up  (\) Slide Down  (h) Hammer On  (p) Pull Off  (b) Bend (r) Release (v) Vibrato

Intro

E|-----------------------------------------------------------------------------------------
B|-----------------------------------------------------------------------------------------
G|-----------------------------------------------------------------0-----0--2--------------
D|-----0h2--2--2--2--2-----0h2--2--2--2--2-----0h2--2--2--2--2--------4--------4--0--------
A|-----------------------------------------------------------------------------------------
E|-----------------------------------------------------------------------------------------



E|-----------------------------------------------------------------------------
B|-----0--0--0--0--------------------------------------------------------------
G|-----------------2-----2--2--2--2--0-----0--0--0--0-----0--2--0--------------
D|-----------------------------------------------------4-----------4--2--------
A|-----------------------------------------------------------------------------
E|-----------------------------------------------------------------------------



E|-----------------------------------------------------------------------------
B|-----0--0--0--0--------------------------------------------------------------
G|-----------------2-----2--2--2--2--0-----0--0--0--0-----0--------------------
D|-----------------------------------------------------4-----0--2--4--2--------
A|-----------------------------------------------------------------------------
E|-----------------------------------------------------------------------------

							http://www.guitartabcreator.com