The Houses Are Silent SOLO Created By vicbo on 2020-09-03
(/) Slide Up  (\) Slide Down  (h) Hammer On  (p) Pull Off  (b) Bend (r) Release (v) Vibrato

Stave 1:

E|-------------------------------|---------------------------------------|-------------------------------|--
B|-------------------------------|-----------------------------10--------|-------------------------------|--
G|--7-----7-----7-----7--9b11r9--|--7-----7-----7-----7--9b11------11r9--|--7-----7-----7-----7--9b11r9--|--
D|-----9-----9-----9-------------|-----9-----9-----9---------------------|-----9-----9-----9-------------|--
A|-------------------------------|---------------------------------------|-------------------------------|--
E|-------------------------------|---------------------------------------|-------------------------------|--

Stave 2:

E|-----------------------------------------------|----------------------------|------------------------------|--
B|-----------------------------------------------|----------------------------|------------------------------|--
G|--7-----------------------7--9--7-----------7--|--9p7--9p7--9p7--9b11r9--9--|--9p7-------------------------|--
D|-----9--9--9--9--9--9--9-----------9--7--9-----|----------------------------|-------9--9p7-----------------|--
A|-----------------------------------------------|----------------------------|---------------9--9p7---------|--
E|-----------------------------------------------|----------------------------|-----------------------10--7--|--

Stave 3: PLAY 6 TIMES

E|----------------------------------------------------|--
B|----------------------------------------------------|--
G|--7h9--9--9--9--9--9--9--9--9--9--9--9--9--9--9--9--|--
D|----------------------------------------------------|--
A|----------------------------------------------------|--
E|----------------------------------------------------|--

Stave 4:

E|----------------------------------------------------|-----------------------------------|--
B|----------------------------------------------------|-----------------------------------|--
G|----------------------------------------------------|-------------------------7h9p7-----|--
D|--7h9--9--9--9--9--9--9--9--9--9--9--9--9--9--9--9--|--7h9--9--9--9--9--9--9---------9--|--
A|----------------------------------------------------|-----------------------------------|--
E|----------------------------------------------------|-----------------------------------|--

Stave 5: PLAY 2 TIMES

E|----------------------------------------------------|--
B|----------------------------------------------------|--
G|--7h9--9--9--9--9--9--9--9--9--9--9--9--9--9--9--9--|--
D|----------------------------------------------------|--
A|----------------------------------------------------|--
E|----------------------------------------------------|--

Stave 6:

E|-----------------------------------------------------------|--
B|----------------------------------------------10-----------|--
G|--------------7h9--9b11--9p7--9p7--9p7--9b11------11r9--7--|--
D|--9--9--7--9-----------------------------------------------|--
A|-----------------------------------------------------------|--
E|-----------------------------------------------------------|--

Stave 7:

E|------------------------------------------|------------------------------------------|--
B|------------------------------------------|------------------------------------------|--
G|--9p7--9p7--9p7--9p7--9p7--9p7--9p7--9p7--|------------------------------------------|--
D|------------------------------------------|--9p7--9p7--9p7--9p7--9p7--9p7--9p7--9p7--|--
A|------------------------------------------|------------------------------------------|--
E|------------------------------------------|------------------------------------------|--

Stave 8:

E|----------------------------------|---------------------------------------|--
B|----------------------------------|---------------------------------------|--
G|--9p7-----------------------------|---------------------7--9b11r9p7--9p7--|--
D|-------9p7--9p7-------------------|----------------7h9--------------------|--
A|-----------------9p7--9p7---------|-----------7h9-------------------------|--
E|---------------------------10--7--|--0--7h10------------------------------|--

Stave 9:

E|-------------------------------|-------------------------------|--
B|-------------------------------|-------------------------------|--
G|--9b11--9b11--9b11--9b11r9--7--|--9b11--9b11--9b11--9b11r9--7--|--
D|-------------------------------|-------------------------------|--
A|-------------------------------|-------------------------------|--
E|-------------------------------|-------------------------------|--

Stave 10:

E|---------------------------------------------------------------------|--
B|--------10----------------10-----------------------------------------|--
G|--9b11------11r9p7--9b11------11r9p7--9p7--9p7--9p7--9p7--9b11r9--7--|--
D|---------------------------------------------------------------------|--
A|---------------------------------------------------------------------|--
E|---------------------------------------------------------------------|--

Stave 11:

E|------------------------------------------|----------------------------------|--
B|------------------------------------------|----------------------------------|--
G|--9p7--9p7--9p7--9p7--9p7--9p7--9p7--9p7--|--9p7-----------------------------|--
D|------------------------------------------|-------9p7--9p7-------------------|--
A|------------------------------------------|-----------------9p7--9p7---------|--
E|------------------------------------------|---------------------------10--7--|--

Stave 12:

E|-----------------------------------|--7---7---7---
B|-----------------------------------|--10--10--10--
G|------------------7h9b11r9p7--9p7--|--------------
D|-------------7h9-------------------|--------------
A|--------7h9------------------------|--------------
E|--7h10-----------------------------|--------------

							http://www.guitartabcreator.com 
Wally's Theme - Pokemon Masters Created By Jack_M9 on 2020-09-03
(/) Slide Up  (\) Slide Down  (h) Hammer On  (p) Pull Off  (b) Bend (r) Release (v) Vibrato

Stave 1:

E|-------------------------------------------------------------------------------------------------------------------------------------
B|-----------8----------------------------------8--10--10--10--8------8----------------------------------------------------------------
G|--9--7--9-----9--11--11--9--7--9-----9--7--9--------------------11-----------------7----------------------------------7-----7--7--7--
D|--------------------------------------------------------------------------9--7--9-----9--10--10--9--7--9-----9--7--9-----9-----------
A|-------------------------------------------------------------------------------------------------------------------------------------
E|-------------------------------------------------------------------------------------------------------------------------------------

Stave 2:

E|------------------------------------------------------------------------------------------------------------------------------
B|----------------10----------------------------------10------12--10--8-----------------------------------10--10---------10b12--
G|-----9--11--12------11--9--11--12--------9--11--12------11---------------------------9--12--11--11--12----------11--7---------
D|--9-----------------------------------9-----------------------------------9--10--12-------------------------------------------
A|------------------------------------------------------------------------------------------------------------------------------
E|------------------------------------------------------------------------------------------------------------------------------

Stave 3:

E|------------------------------------------------------------------------------------------------
B|--12--10----------------------------------------------------------------------------------------
G|----------12--11--9--9h11p9\8--11b12--11------12b14--12--11--12--9--8--9--11--12b14--12b14--12--
D|------------------------------------------12----------------------------------------------------
A|------------------------------------------------------------------------------------------------
E|------------------------------------------------------------------------------------------------

Stave 4:

E|----------------------------------------------------------------------------
B|-------------------------------------------12--13---------------------------
G|--10b12--11------8--12b14--12--11--12--14----------14--12--14--12h14p12\11--
D|-------------12-------------------------------------------------------------
A|----------------------------------------------------------------------------
E|----------------------------------------------------------------------------

Stave 5:

E|------12--14--15--14--12------12--14--15--17--16b17--15--14--15--15--17--19--19--20--17--15--16b17--
B|--12----------------------15------------------------------------------------------------------------
G|----------------------------------------------------------------------------------------------------
D|----------------------------------------------------------------------------------------------------
A|----------------------------------------------------------------------------------------------------
E|----------------------------------------------------------------------------------------------------

Stave 6:

E|--15--20b22b20--19---------12--14--15--17--14-----14--15--17--14--19b20p19--15--15--17--19--20--17--15--17--
B|-----------------------12-----------------------------------------------------------------------------------
G|------------------------------------------------------------------------------------------------------------
D|------------------------------------------------------------------------------------------------------------
A|------------------------------------------------------------------------------------------------------------
E|------------------------------------------------------------------------------------------------------------

Stave 7:

E|----------15--17--18b19--
B|--15--17-----------------
G|-------------------------
D|-------------------------
A|-------------------------
E|-------------------------

							http://www.guitartabcreator.com 
Super Mario 64 - Bob omb Battlefield Created By Jack_M9 on 2020-09-03
(/) Slide Up  (\) Slide Down  (h) Hammer On  (p) Pull Off  (b) Bend (r) Release (v) Vibrato

Stave 1:

E|----------------------------------------------------------------------------------------------------------------------
B|----------------------------------------------------------------------------------------------------------------------
G|--7-----7--9--7------------------------------------------------14--16--14---------------------------------------------
D|-----9-------------------------------------14--15--16--15--16-----------------------------------------12--14--12------
A|-----------------9--10--11--12--12--12-------------------------------------17-----12--13--14--13--14--------------14--
E|----------------------------------------------------------------------------------------------------------------------

Stave 2:

E|-------------------------------------------------------------------------------------------------------------------
B|-------------------------------------------------------------------------------------------------------------------
G|------------------14--------------14--------------14--14--14/16--14-----------------------------14--16--14--16/17--
D|---------------------------------------------------------------------14-----14--15--16--15--16---------------------
A|--14--12--14--12------12--14--12------12--14--12-------------------------------------------------------------------
E|-------------------------------------------------------------------------------------------------------------------

Stave 3:

E|----------------------------------------------------------------------------------------
B|------------------15--17--15------------------------------------------------------------
G|--14--16--14--16--------------16-----16--14--16--14------14--16--14---------------------
D|-------------------------------------------------------------------------14/16--16--12--
A|-----------------------------------------------------17--------------17-----------------
E|----------------------------------------------------------------------------------------

Stave 4:

E|---------------------------------------------------------------------------
B|--5--6--7--8--10--10--8--8--6--8--5-----5--6--7--8--10--10--8--8--6--5-----
G|------------------------------------------------------------------------5--
D|---------------------------------------------------------------------------
A|---------------------------------------------------------------------------
E|---------------------------------------------------------------------------

Stave 5:

E|---------------------------------------------------------------------------
B|--10--10--9--9--8--8--7--7--6--8--5-----10--10--9--9--8--8--7--7--6--5-----
G|------------------------------------------------------------------------5--
D|---------------------------------------------------------------------------
A|---------------------------------------------------------------------------
E|---------------------------------------------------------------------------

Stave 6:

E|-------------------------------------------------------------------------------------
B|--13-----11--13-----11--10--------10--------13-----11--13-----11--10--10--10--10--9--
G|------9----------9----------7--8------7--8------9----------9-------------------------
D|-------------------------------------------------------------------------------------
A|-------------------------------------------------------------------------------------
E|-------------------------------------------------------------------------------------

Stave 7:

E|------------------------------------------------------------------------------11--12--
B|--13-----11--13-----11--10--------10--------13-----11-----11--10--10--10--13----------
G|------9----------9----------7--8------7--8------9------9------------------------------
D|--------------------------------------------------------------------------------------
A|--------------------------------------------------------------------------------------
E|--------------------------------------------------------------------------------------

							http://www.guitartabcreator.com 
Qing fei de yi Created By dan333666999 on 2020-09-03
(/) Slide Up  (\) Slide Down  (h) Hammer On  (p) Pull Off  (b) Bend (r) Release (v) Vibrato

Stave 1:

E|--5--3--3--------------------------------------------------------------------------------------------------------------------------------------------------
B|-----------5--3--1--1--0--------------------------------------------------1-----------------------1--0-----------------------------------------------------
G|--------------------------2--0--0--------0--0--0--------------------------------0-----------------------2--0-----------------------------0-----------0--2--
D|-----------------------------------2--3-----------3--2--2--0--2--0-----------2-----------0-----------------------------2--2--0--2--2--3-----2--2--3--------
A|--------------------------------------------------------------------3--3-----------3--3-----3--3--------------3-----3--------------------------------------
E|-----------------------------------------------------------------------------------------------------------------------------------------------------------

Stave 2:

E|-----------------------------------------------------------------------------------------------------0-----------------------------0-----------------3-----
B|--------------------------1--1-----------------1--1--3--0--------------------1--1-----1-----1--3--------3-----0--------------1--3-----3--3-----1--1--------
G|-----------------------------------2--0--0--2--------------2--0-----0--0--2--------2-----2--------0--------------2--0-----0--------------------------------
D|--2--2--0-----2--0--------------2--------------------------------------------------------------------------------------------------------------------------
A|--------------------3--3-----------------------------------------------------------------------------------------------------------------------------------
E|-----------------------------------------------------------------------------------------------------------------------------------------------------------

Stave 3:

E|--0--3--0--0--0-----0--1--1-----0--0--------------------------------------------------------------------0--------------3-----0--3-----0--0--0-----0--1--1--
B|-----------------3--------------------3--1--1-----1--3--------------------1--1-----1-----1--3-----1--3-----3--3--1--1--------------------------3-----------
G|-----------------------------------------------2--------2--0-----0--0--2--------2-----2--------------------------------------------------------------------
D|-----------------------------------------------------------------------------------------------------------------------------------------------------------
A|-----------------------------------------------------------------------------------------------------------------------------------------------------------
E|-----------------------------------------------------------------------------------------------------------------------------------------------------------

Stave 4:

E|--0--0--------------------------------------------------0--------------------------------0--------
B|--------3--3--1--1-----1--3--------------------1--1--------3--1-----------------1--1--------3--1--
G|--------------------2--------2--0-----0--0--2--------2-----------------0--0--2--------2-----------
D|--------------------------------------------------------------------------------------------------
A|--------------------------------------------------------------------------------------------------
E|--------------------------------------------------------------------------------------------------

							http://www.guitartabcreator.com