We're Going to be Friends - The White Stripes Created By Banjoboy on 2021-11-11
(/) Slide Up  (\) Slide Down  (h) Hammer On  (p) Pull Off  (b) Bend (r) Release (v) Vibrato

Intro:

E|--------------------------------------------------|--
B|-----------0-----------0-----------0-----------0--|--
G|-----0-----------0-----------0-----------0--------|--
D|--------------------------------------------------|--
A|--------------------------------------------------|--
E|--3-----3-----3-----3-----3-----3-----3-----3-----|--

Verse Part One:

E|--------------------------------------------------------------------------------------------------------------------
B|-----------0-----------0-----------0-----------0-----------1-----------1-----------0-----------0--------------------
G|-----0-----------0-----------0-----------0-----------0-----------0-----------0-----------0--------------------------
D|--------------------------------------------------------------------------------------------------------------------
A|--------------------------------------------------3-----3-----3-----3-----------------------------------------------
E|--3-----3-----3-----3-----3-----3-----3-----3-----------------------------3-----3-----3-----3-----------------------

Verse Part Two:

E|-----------2-----------------------------------------------2--------------------------------------------------------------|--
B|-----3-----------------1-----------0-----------0-----3-----------------1-----------0-----------0-----------0-----------0--|--
G|-----------------0-----------0-----------0-----------------------0-----------0-----------0-----------0-----------0--------|--
D|--0-----0-----------------------------------------0-----0-----------------------------------------------------------------|--
A|--------------3-----3-----------------------------------------3-----3-----------------------------------------------------|--
E|--------------------------3-----3-----3-----3-----------------------------3-----3-----3-----3-----3-----3-----3-----3-----|--

Bridge Part One:

E|-----------------------------------------------------------------------------------------------------
B|-----------1-----------1-----------0-----------0-----------1-----------1-----------0-----------0-----
G|-----0-----------0-----------0-----------0-----------0-----------0-----------0-----------0-----------
D|-----------------------------------------------------------------------------------------------------
A|--3-----3-----3-----3-----------------------------3-----3-----3-----3--------------------------------
E|--------------------------3-----3-----3-----3-----------------------------3-----3-----3-----3--------

Bridge Part Two:

E|-----------------------------------------------------------------------------------2-----------2--|--
B|-----------2-----------2-----------2-----------2-----------1-----------1-----3-----------3--------|--
G|-----2-----------2-----------2-----------2-----------0-----------0--------------------------------|--
D|--------------------------------------------------------------------------0-----0-----0-----0-----|--
A|--0-----0-----0-----0-----0-----0-----0-----0-----3-----3-----3-----3-----------------------------|--
E|--------------------------------------------------------------------------------------------------|--

							http://www.guitartabcreator.com 
Sintonía Americana - Abuelos bass tab Created By Leandro Tognetti on 2021-11-11
(/) Slide Up  (\) Slide Down  (h) Hammer On  (p) Pull Off  (b) Bend (r) Release (v) Vibrato

Stave 5:

G|-----------------|-----------------|-----------------|-----------------|-----------------------|-
D|-----------------|-----------------|-----------------|-----------------|-----------------------|-
A|-----5-5-----5-5-|-----5-5-----5-5-|-5---4-----------|-----------------|-5-5-5-------5-7-5-----|-
E|-3-------3-------|-3-------3-------|---------7---5---|-3-3-3-3-6-6-6-6-|---------5-7-------7-5-|-

Stave 4:

G|-----------------|-----------7-7-|-----------------|-------------------|-
D|-----------------|---------------|-----------------|-------------------|-
A|-5---------------|---------5-----|-5---------------|---------5-5-------|-
E|-----7---3---3-3-|-5---5h7-------|-----7---3---3-3-|-5---5h7-----7-5h7-|-

Stave 3:

G|-----------------|-----------------|-----------------|-----------------|-----------------------|-
D|-----------------|-----------------|-----------------|-----------------|-----------------------|-
A|-----3-3-----3-3-|-----3-3-----3-3-|-3---2-----------|-----------------|-3-3-3-------3-5-3-----|-
E|-1-------1-------|-1-------1-------|---------5---3---|-1-1-1-1-4-4-4-4-|---------3-5-------5-3-|-

Stave 2:

G|-----------------|-------------|-----------------|---------------------|-
D|-----------------|-------------|-----------------|---------------------|-
A|-3---------------|---------3---|-3---------------|---------3-3---5h7---|-
E|-----5---1---1-1-|-3---3h5-----|-----5---1---1-1-|-3---3h5-----5-------|-

Stave 1:

G|-----5-----------|-------------------5-|-3---5-----------|-------------------5-|-
D|-----------------|---------------------|-----------------|---------------------|-
A|-3-----3---------|---------3-3---------|-------3---------|---------3-3---5h7---|-
E|---------1---1-1-|-3---3h5-----5-3h5---|---------1---1-1-|-3---3h5-----5-------|-

							http://www.guitartabcreator.com 
Hot Tent Blues / Broken (Late of the Pier) Created By GetonZZTop on 2021-11-11
(/) Slide Up  (\) Slide Down  (h) Hammer On  (p) Pull Off  (b) Bend (r) Release (v) Vibrato

Stave 1: Guitar 1 intro

E|---------------------------------:|--------
B|---------------------------------:|--------
G|---------------------------------:|--------
D|--6--9--9b10--10r9--7--6--------:|-----9--
A|---------------------------------:|-----7--
E|---------------------------------:|-----7--

Stave 2: Guitar 2 Intro

E|--7-----------------------:|---------------------------------------------
B|--7-----------------------:|--12--------10--------14--------8------------
G|--7-----------------------:|--14b16-----12b14-----16b18-----10b12--------
D|--------------------------:|---------------------------------------------
A|--------------------------:|---------------------------------------------
E|--------------------------:|---------------------------------------------

Stave 3: Tremolo Effect Transition

E|--12-----7-----5--------12-----7-----5-7-----
B|--12-----7-----5--------12-----7-----5-7-----
G|--12-----7-----5--------12-----7-----5-7-----
D|---------------------------------------------
A|---------------------------------------------
E|---------------------------------------------

Stave 4: Broken Intro

E|-7------------------------
B|-7-------------------------
G|-7---------7h9b10p7---------7h9p7-9b10r9-7v--
D|-x-----7h9-------------9--------
A|-x-----------------------------------
E|--------------------------------

Stave 5:

E|--
B|--
G|--
D|--
A|--
E|--

							http://www.guitartabcreator.com 
Himno Nacional Created By matiasbarmat on 2021-11-11
(/) Slide Up  (\) Slide Down  (h) Hammer On  (p) Pull Off  (b) Bend (r) Release (v) Vibrato

Intro

E|--------------------------------------------------------------------------------------------------------------------
B|--------------------------------------------------------------------------------------------------------------------
G|--------------------------------------------------------------------------------------------------------------------
D|--------------------------------------------------------------------------------------------------------------------
A|-----------2--5--------5--5--5--5--------------------5--------------5-----------5--------5--5--5--5--5--5--5--------
E|--------3--------------------------3--3--4--5-----------3-----2--3--------2--3--------------------------------------



E|-----------------------------------------------------------------------------------------------------------------------------------
B|-----------------------------------------------------------------------------------------------------------------------------------
G|-----------------------------------------------------------------------------------------------------------------------------------
D|-----------------------------------------------------------------------------------------------------------------------------------
A|-----------5--2-----------5--------5--------------------------------------------5-----5-----------5-----5-----5--------------------
E|--------3--------3-----------5--2--------------3--3--2--2--3--3--3--3--3-----------3-----3-----------3-----3-----3-----3-----3-----

Instrumental

E|-----------------------------------------------------------------------------------------------------------
B|-----------------------------------------------------------------------------------------------------------
G|-----------------------------------------------------------------------------------------------------------
D|-----------------------------------------------------------------------------------------------------------
A|-----5--5--5--5--------------5--5--5--5-----------------------------5--5--5--5-----------5-----------------
E|-----------------3--3--3--3--------------3--3--3--------3--3--3--3--------------3--3--3-----3--3--3--------

							http://www.guitartabcreator.com 
Epic guitar ding bro Created By just abrahamse on 2021-11-11
(/) Slide Up  (\) Slide Down  (h) Hammer On  (p) Pull Off  (b) Bend (r) Release (v) Vibrato

Stave 1:

E|-----------------------------------------|--------------------------------------|--------------------------------------|-----------------------------------------|-----------------------------------------|-----------------------------------------|--------------------------------------|--------------------------------------|--
B|--------6--------6--------6--------6-----|--------6--------6--------6--------6--|--------6--------6--------6--------6--|--------6--------6--------6--------6-----|--------6--------6--------6--------6-----|--------6--------6--------6--------6-----|--------6--------6--------6--------6--|--------6--------6--------6--------6--|--
G|-----5--------5--------5--------5--------|-----5--------5--------5--------5-----|-----5--------5--------5--------5-----|-----5--------5--------5--------5--------|-----5--------5--------5--------5--------|-----5--------5--------5--------5--------|-----5--------5--------5--------5-----|-----5--------5--------5--------5-----|--
D|--7--------7--------7--------7-----------|--5--------5--------5--------5--------|--3--------3--------3--------3--------|--0--------0--------0--------3-----------|-----------------------------------------|-----------------------------------------|--------------------------------------|--------------------------------------|--
A|-----------------------------------------|--------------------------------------|--------------------------------------|-----------------------------------------|--0--------0--------0--------0-----------|--5--------5--------5--------5-----------|--8--------8--------8--------8--------|--3--------3--------3--------3--------|--
E|-----------------------------------------|--------------------------------------|--------------------------------------|-----------------------------------------|-----------------------------------------|-----------------------------------------|--------------------------------------|--------------------------------------|--

							http://www.guitartabcreator.com