mate ne Created By dphammy on 2021-06-16
(/) Slide Up  (\) Slide Down  (h) Hammer On  (p) Pull Off  (b) Bend (r) Release (v) Vibrato

Stave 1:

E|---------------10-----9-----7--------2-----3-5-3---------------------10-----9-----7--------2-----3-5-3-----
B|-------------------------------------3---------3-------------------------------------------3---------3-----
G|-----------11------9-----7-----------2-----4-6-4-----------------11------9-----7-----------2-----4-6-4-----
D|-----0-------------------------------0-----5-7-5-----------0-------------------------------0-----5-7-5-----
A|-----------------------------------------------------------------------------------------------------------
E|-----------------------------------------------------------------------------------------------------------

Stave 2:

E|--------0--2-----2--2--2-----2--3-----3--------0--2-----2--2--2-----2--3-----2--3--0-----------------------------------------2-----------
B|-----3-----3-----3--3--------3-----3--3--3--3-----3-----3--3--------3-----3--3-----3--3--2--2-----2-----------2-----2--3--3--------------
G|-----------2-----2-----2-----0--------0-----0-----2-----2-----2-----0--------0-----------2--------2-----4-----4-----4-----4--------------
D|-----------0-----0--------------------------------0-----0-----------------------------------------------------------------2--------------
A|--------------------------------------------------------------------------------------------------------------------2-----2--------------
E|-----------------------------3--------3-----------------------------3--------3-----------2--------2-----------2--------------------------

Stave 3:

E|-----------------0--------------------0--2--2--2--2--2-----2--3-----3--------0--2--2--2--2--2-----2--3-----2--3--0--------------------
B|--0-----------------3--3-----2-----3-----3-----3--3--------3-----3--3--3--3-----3-----3--3--------3-----3--3-----3--3-----------------
G|-----2--1--1--1--------2-----2-----------2-----2-----2-----0--------0-----0-----2-----2-----2-----0--------0--------------------------
D|--------2--------------2-----2-----------0-----0--------------------------------0-----0-----------------------------------------------
A|-----------------------0-----0--------------------------------------------------------------------------------------------------------
E|--------0-----0--------------------------------------------3--------3-----------------------------3--------3--------------------------

Stave 4:

E|-----------------------------------------------------------------------0--------2--------------------0-----5--------------5--7--5-----------------0--2--3--2--
B|--2-----2--2-----2-----2--2--2--3--------------3--0--2--3--------------------3-----5--3-----3-----3-----3-----3-----3--------------3-----3-----3-----3--------
G|--2--2-----2-----2--4--2-----2-----2-----2-----2--------1--1-----1-----------2-----2--2-----2-----2-----------0-----0--------------0-----0-----------0--------
D|--2--2-----2-----2--2--2-----2-----4-----4-----4--------2--2-----2-----------------2--------------------------------------------------------------------------
A|-----------------------------2--------2-----2--2-----------------------------------0-----0-----0--------------------------------------------------------------
E|--2--------2-----2--2--2--------------------------------0-----0-----0-----0--------------------------------3-----3-----3--------2-----3-----3--------0--------

Stave 5:

E|-----------2-----------------------------7--------5--5--------------5--7--5-----5--0--9--10-----5--3--2--3-----------5-----3--2-----3-----------0-----------2--3--2-----------------------
B|-----3-----2--2-----5--3-----------2--3--5--5-----5-----3-----3-----------2--2--------7------------3--------3-----3--------------------3-----3-----3-----------------3--------------------
G|-----0-----3--3-----3--2-----2-----2-----5--5-----------0-----0-----------2--2--------7------------0-----------------------------------2-----------------2--------------2-----------------
D|-----------------------4-----4-----4--------------------------------------0------------------------------------------------------------2-----------0--0-----------------------------------
A|-----------------------2--2-----2--------------0---------------------------------------------------------------------------------------0--------------------------------------------------
E|--0-----0--2-----0-----------------------------------3-----3-----3--------------------7------------0--------0--0-----2-----3-----0--------------------------------------------------------

							http://www.guitartabcreator.com 
アイノカタチ Ainokatachi/MISIA (Arranged by Ahaw) Created By ahaw on 2021-06-16
(/) Slide Up  (\) Slide Down  (h) Hammer On  (p) Pull Off  (b) Bend (r) Release (v) Vibrato

Stave 1:

E|--------4-----2-----------------------------------------------------------------------
B|--0-----0--------3--2-----2--3--2-----0-----------3--2--------2--3--3-----------------
G|--0--------------0-----------------2-----------------------2-----3--3-----------0-----
D|--0--0-----------------------------------------2-----------------------------4--------
A|-----------0--0-----2--------------------------------------------------------0--------
E|--5-----------------------4-----------------2-----------4-----------5-----------------

Stave 2:

E|--------------------------------------------------------------------------------------------
B|-----------0--------------------------------------------------------0-----1--0--------------
G|--2-----2-----2-----0-----2-----2--4--2-----0-----2-----2--2-----2--------2-----2--0-----2--
D|--4--------------4--------2--------------4--------2-----------4-----------1-----------4-----
A|--5-----------------------4-----------------------3-----------------------2-----------------
E|--------------------------------------------------------------------------------------------

Stave 3:

E|-----------------------------------------------------------------------2--------
B|-----------------------------------------------------------0-----0--2--2--------
G|--0--0--2--0-----------0--0--2--0-----------0--0--2--0--2-----2-----3--3--------
D|--2-----------4--2-----1-----------4--2-----0-----------------2-----------------
A|--2-----------------------------------------0-----------------0-----4-----------
E|--2--------------------1--------------------0-----------------------------------

Stave 4:

E|-----------4--2--0-----------2-----4-----2--------------4--2-----------4--2--------------------
B|--3--2--3-----0--------2--3--------3-----------3--2--3-----0-----0--3--3-----3--3-----0--2-----
G|--2-----------0--------2--------2--2-----------2-----------0-----0-----0--------2--------------
D|--4-----------0--------2-----------0-----------4-----------0--2-----------------0--------------
A|--2--------------------0-----------------------2-----------------------0-----------------------
E|--------------2--------------------4-----------------------2--------------------------4--------

							http://www.guitartabcreator.com 
finding way Created By Joelious on 2021-06-16
(/) Slide Up  (\) Slide Down  (h) Hammer On  (p) Pull Off  (b) Bend (r) Release (v) Vibrato

Stave 1:

E|--0------------0--------7--7--9------------------------0----------0------------0------------------------------
B|--3--3--3------2--2--2------------------------------3--3--2-------3--3--3------2--2--2--2--2/3\2-----------0--
G|--4--4--4------3--3--3-----------19--------7--7--5-----5-----5\4--4--4--4------3--3--3------------------2-----
D|-----------19------------------------------7--7--5-------------------------19------------------------0--------
A|--------------------------------------------------------------------------------------------------2-----------
E|--3-----3------2-----2---------------7--7-----7--5-----5----------3-----3------2-----2------------------------

Stave 2:

E|-------------------0------------------0--------------------3-----------------------------0---------------------
B|--12------------------2------------------7--7--------6--5-----5/7\5--3--12------------------2---------------2--
G|---------4------------------3------------7--7--------6--5----------------------4------------------3------------
D|------------12-----------------12-------------------------------------------------12-----------------12--------
A|------5---------------------------------------------------------------------5----------------------------------
E|--3-------------3--------2---------2-----7-----7--7--6--5---------------3-------------3--------2---------2-----

Stave 3:

E|-----------------
B|--0-----------0--
G|-----------2-----
D|--------0--------
A|-----2-----------
E|-----------------

							http://www.guitartabcreator.com 
The Chicken Main Melody Created By LJN62 on 2021-06-16
(/) Slide Up  (\) Slide Down  (h) Hammer On  (p) Pull Off  (b) Bend (r) Release (v) Vibrato

Stave 1:

E|----------------|-------------------------------|-------6--------------------
B|----------6-----|-----------------------8----6--|-----6h8--6-----------------
G|--------6h7-----|-----------6-----------8--6h7--|--7----------6--5--3-----3--
D|--5--8----------|-----5--8-----8--5--8----------|----------------------5-----
A|----------------|--8----------------------------|----------------------------
E|----------------|-------------------------------|----------------------------

Stave 2:

E|--6-----5--5-------------------|--------6--10--6--------------
B|--8-----7--7-----10--8------8--|--7--8------------8--8--7--8--
G|--6-----5--5------------10-----|------------------9--9--8--9--
D|-------------------------------|------------------8--8--7--8--
A|-------------------------------|------------------------------
E|-------------------------------|------------------------------

Stave 3:

E|--------6--10--6-----------------------6--10--6--------------
B|--7--8------------8--8--7--8-----7--8------------8--8--7--8--
G|------------------9--9--8--9---------------------9--9--8--9--
D|------------------8--8--7--8---------------------8--8--7--8--
A|-------------------------------------------------------------
E|-------------------------------------------------------------

Stave 4:

E|--6--------------------6--
B|-----9--6--------------6--
G|-----------8--6-----------
D|-----------------8--6-----
A|--------------------------
E|--------------------------

							http://www.guitartabcreator.com