After Dark Created By lonelyversemaker on 2021-06-16
(/) Slide Up  (\) Slide Down  (h) Hammer On  (p) Pull Off  (b) Bend (r) Release (v) Vibrato

Stave 1:

E|--------0-----------0-----------0-----------0-------------0-----------0-----------0-----------3--3--1--0--
B|-----------0-----------0-----------0-----------0h0-----------0-----------0-----------0--------------------
G|----------------------------------------------------------------------------------------------------------
D|----------------------------------------------------------------------------------------------------------
A|--------------------------0--0--------0--0----------------------------------0--0--------0--0--------------
E|--0--0--------0--0----------------------------------0--0--------0--0--------------------------------------

Stave 2:

E|----------0----------0----------0----------0--------------------------0--------1--0--
B|-----1p0--------1p0--------1p0--------1p0--------1p0-----1p0-----1r0--------0--------
G|-------------------------------------------------------------------------------------
D|-------------------------------------------------------------------------------------
A|------------------------0----------0--------------------------0----------0-----------
E|--0----------0--------------------------------0-------0------------------------------

Stave 3:

E|--------0--0-----------0--0-----------0--0-----------0--0-------------0--0-----------0--0-----------0--0-----------3--3--1--0--
B|--------------0--------------0--------------0--------------0h0--------------0--------------0--------------0--------------------
G|-------------------------------------------------------------------------------------------------------------------------------
D|-------------------------------------------------------------------------------------------------------------------------------
A|--------------------------------0--0-----------0--0-------------------------------------------0--0-----------0--0--------------
E|--0--0-----------0--0-------------------------------------------0--0-----------0--0--------------------------------------------

							http://www.guitartabcreator.com 
Our Song Created By Savys on 2021-06-15
(/) Slide Up  (\) Slide Down  (h) Hammer On  (p) Pull Off  (b) Bend (r) Release (v) Vibrato

Stave 1:

E|-----------------------------------
B|-----------------------------------
G|-----------------------------------
D|--0--0--0-----4--4--4--------------
A|-----------4-----------2--2--2-----
E|-----------------------------------

Stave 2:

E|--------------------------------------------------------------------------
B|--3--2--0-----------3--2--0-----------3--2--0-----------3--2--0-----2-----
G|-----------2-----------------2--2--------------2-----------------2--------
D|--------------------------------------------------------------------------
A|--------------------------------------------------------------------------
E|--------------------------------------------------------------------------

Stave 3:

E|-----0--2--------2--0--------------------2--0-----
B|--3--------3-----------2--------------------------
G|--------------2-----------2-----0--0--0-----------
D|-----------------------------4--------------------
A|--------------------------------------------------
E|--------------------------------------------------

Stave 4:

E|--------------------------------------
B|--3--2--0-----------3--2--0-----------
G|-----------2-----2-----------2--2-----
D|--------------------------------------
A|--------------------------------------
E|--------------------------------------

Stave 5:

E|--------------------------------------2-----
B|--0--0--0--0--2--2--2--2--3--3--3--3-----0--
G|--------------------------------------------
D|--------------------------------------------
A|--------------------------------------------
E|--------------------------------------------

Stave 6:

E|--------------------------------------0--0-----0--0-----0--0-----0--2--------
B|--0--0--0--2--2--2--3-----3--------3--------3--------3--------3-----------0--
G|-----------------------------------------------------------------------2-----
D|-----------------------------------------------------------------------------
A|-----------------------------------------------------------------------------
E|-----------------------------------------------------------------------------

Stave 7:

E|-----0--0-----0--0-----0--0-----0--2-----------------0--
B|--3--------3--------3--------3-----------0-----3--3-----
G|--------------------------------------2-----------------
D|--------------------------------------------------------
A|--------------------------------------------------------
E|--------------------------------------------------------

Stave 8:

E|--2--5--3--2--0--0--0--------0--2--5--3--2--0--0--0-----3--2--2--2--
B|-----------------------3--3--------------------------3--------------
G|--------------------------------------------------------------------
D|--------------------------------------------------------------------
A|--------------------------------------------------------------------
E|--------------------------------------------------------------------

Stave 9:

E|--2--5--3--2--0--0--0-----3--2--2--2-----0--0-----0--0-----0--0-----0--2--------------0--
B|-----------------------3--------------3--------3--------3--------3-----------0-----3-----
G|--------------------------------------------------------------------------2--------------
D|-----------------------------------------------------------------------------------------
A|-----------------------------------------------------------------------------------------
E|-----------------------------------------------------------------------------------------

Stave 10:

E|--2--5--7-----------------------------------------------------------------------
B|--------------------0--------3--2--0-----------3--2--0-----------3--2--0-----2--
G|--------------7--6-----2--------------2--2--------------2-----------------2-----
D|--------------------------------------------------------------------------------
A|--------------------------------------------------------------------------------
E|--------------------------------------------------------------------------------

Stave 11:

E|-----0--2--------2--0--------------------2--0--
B|--3--------3-----------2-----------------------
G|--------------2-----------2-----0--0--0--------
D|-----------------------------4-----------------
A|-----------------------------------------------
E|-----------------------------------------------

Stave 12:

E|-----------------------------------------
B|-----3--2--0--------------3--2--0--------
G|--------------2--------2-----------2--2--
D|-----------------------------------------
A|-----------------------------------------
E|-----------------------------------------

Stave 13:

E|--------------------------------------2-----------------------------
B|--0--0--0--0--2--2--2--2--3--3--3--3-----0--0--0--2--2--2--3--3-----
G|--------------------------------------------------------------------
D|--------------------------------------------------------------------
A|--------------------------------------------------------------------
E|--------------------------------------------------------------------

Stave 14:

E|-----0--0-----0--0-----0--0-----0--2-----------0--0-----0--0-----0--0-----0--2--------------0--
B|--3--------3--------3--------3-----------0--3--------3--------3--------3-----------0--3--3-----
G|--------------------------------------2-----------------------------------------2--------------
D|-----------------------------------------------------------------------------------------------
A|-----------------------------------------------------------------------------------------------
E|-----------------------------------------------------------------------------------------------

Stave 15:

E|--2--5--3--2--0--0--0--------0--2--5--3--2--0--0--0-----3--2--2--2--
B|-----------------------3--3--------------------------3--------------
G|--------------------------------------------------------------------
D|--------------------------------------------------------------------
A|--------------------------------------------------------------------
E|--------------------------------------------------------------------

Stave 16:

E|-----0--0-----0--0-----0--0-----0--2-----------0--2--5--7-----
B|--3--------3--------3--------3-----------0--3-----------------
G|--------------------------------------2-----------------------
D|--------------------------------------------------------------
A|--------------------------------------------------------------
E|--------------------------------------------------------------

Stave 17:

E|-----0--0-----0--0-----0--0-----0--2--------
B|-----------3--------3--------3-----------0--
G|--7-----------------------------------2-----
D|--------------------------------------------
A|--------------------------------------------
E|--------------------------------------------

Stave 18:

E|-----0--0-----0--0-----0--0-----0--2--------------0--
B|--3--------3--------3--------3-----------0--3--3-----
G|--------------------------------------2--------------
D|-----------------------------------------------------
A|-----------------------------------------------------
E|-----------------------------------------------------

Stave 19:

E|--2--5--3--2--0--0--0--------0--2--5--3--2--0--0--0-----3--2--2--2--
B|-----------------------3--3--------------------------3--------------
G|--------------------------------------------------------------------
D|--------------------------------------------------------------------
A|--------------------------------------------------------------------
E|--------------------------------------------------------------------

Stave 20:

E|-----0--0-----0--0-----0--0-----0--2--------------0--
B|--3--------3--------3--------3-----------0--3--3-----
G|--------------------------------------2--------------
D|-----------------------------------------------------
A|-----------------------------------------------------
E|-----------------------------------------------------

Stave 21:

E|--2--5--3--2--0--0--0-----3--2--2--2--
B|-----------------------3--------------
G|--------------------------------------
D|--------------------------------------
A|--------------------------------------
E|--------------------------------------

Stave 22:

E|-----0--0-----0--0-----0--0-----0--2--------------0--2--5--7--
B|--3--------3--------3--------3-----------0-----3--------------
G|--------------------------------------2-----------------------
D|--------------------------------------------------------------
A|--------------------------------------------------------------
E|--------------------------------------------------------------

							http://www.guitartabcreator.com 
roxanne1 Created By briancarlozzi on 2021-06-15
(/) Slide Up  (\) Slide Down  (h) Hammer On  (p) Pull Off  (b) Bend (r) Release (v) Vibrato

Stave 1:

E|--3-----------3-----------3-----------3-----------|--3-----------3-----------3-----------3-----------|--3-----------3-----------3-----------3-----------|--
B|--3-----------3-----------3-----------3-----------|--3-----------3-----------3-----------3-----------|--3-----------3-----------3-----------3-----------|--
G|--3-----------3-----------3-----------3-----------|--3-----------3-----------3-----------3-----------|--3-----------3-----------3-----------3-----------|--
D|--5-----------5-----------5-----------5-----------|--5-----------5-----------5-----------5-----------|--5-----------5-----------5-----------5-----------|--
A|--------------------------------------------------|--------------------------------------------------|--------------------------------------------------|--
E|--------------------------------------------------|--------------------------------------------------|--------3-----3-----------------------------------|--

Stave 2:

E|--1-----------1-----------1-----------1-----------|--6-----------6-----------6-----------6-----------|--5-----------5-----------5-----------5-----------|--
B|--3-----------3-----------3-----------3-----------|--8-----------8-----------8-----------8-----------|--6-----------6-----------6-----------6-----------|--
G|--2-----------2-----------2-----------2-----------|--7-----------7-----------7-----------7-----------|--5-----------5-----------5-----------5-----------|--
D|--3-----------3-----------3-----------3-----------|--8-----------8-----------8-----------8-----------|--7-----------7-----------7-----------7-----------|--
A|--x-----------------------------------------------|--x-----6-----6-----------------------------------|--x-----5-----5-----------------------------------|--
E|--------1-----1-----------------------------------|--------------------------------------------------|--------------------------------------------------|--

Stave 3:

E|--3-----------3-----------3-----------3-----------|--1-----------1-----------1-----------1-----3-----|--------------------------|-----------3-----------|--
B|--4-----------4-----------4-----------4-----------|--1-----------1-----------1-----------1-----3-----|--------------------------|-----------------------|--
G|--3-----------3-----------3-----------3-----------|--3-----------3-----------3-----------3-----5-----|--------------------------|-----------------------|--
D|--5-----------5-----------5-----------5-----------|--3-----------3-----------3-----------3-----3-----|--------------------------|-----------------------|--
A|--x-----3-----3-----------------------x-----x-----|--x-----------------------------------------5-----|--------------------------|-----------------------|--
E|--------------------------------------------------|--------1-----1-----x-----x-----x-----1-----3-----|--------------------------|-----------------------|--

Stave 4:

E|--
B|--
G|--
D|--
A|--
E|--

							http://www.guitartabcreator.com 
Mad World With an Indian Twist Created By RIYAZ on 2021-06-15
(/) Slide Up  (\) Slide Down  (h) Hammer On  (p) Pull Off  (b) Bend (r) Release (v) Vibrato

Stave 1:

E|---------0----------------------------------|--------------------------------------------|----
B|----1---------0----1---------0--------------|--------------------------------------------|----
G|------------------------2-------------------|--------------2-------------------2---------|----
D|--------------2-------------------5----4----|--------------4-------------------4---------|----
A|----0-------------------0-------------------|----5-------------------5-------------------|----
E|--------------------------------------------|--------------------------------------------|----

Stave 2:

E|--------------------------------------------|----0----0---------0------------------------|----
B|------------------------1----1--------------|----1------------------------1--------------|----
G|---------2----2----2--------------2----2----|---------------------------------------0----|----
D|--------------2-------------------2---------|--------------2-------------------2---------|----
A|----0-------------------0-------------------|----3-------------------3-------------------|----
E|--------------------------------------------|--------------------------------------------|----

Stave 3:

E|--------------------------------------------|--------------------------------------------|----
B|----3----3---------3---------0--------------|----3----3---------3---------1----0---------|----
G|----0----------------------------------0----|--------------2------------------------2----|----
D|--------------0-------------------0---------|----0-------------------0-------------------|----
A|--------------------------------------------|--------------------------------------------|----
E|----3-------------------3-------------------|--------------------------------------------|----

Stave 4:

E|----------------------------------0----0----|----2-------------------2----2--------------|----
B|------------------------1----1--------------|---------3---------3--------------3----3----|----
G|--------------2----2------------------------|--------------2-------------------2---------|----
D|--------------2-------------------2---------|----0-------------------0-------------------|----
A|----0-------------------0-------------------|--------------------------------------------|----
E|--------------------------------------------|--------------------------------------------|----

							http://www.guitartabcreator.com