Esta Dañada - Ivan Cornejo (requinto) Created By Chay2002 on 2021-11-12
(/) Slide Up  (\) Slide Down  (h) Hammer On  (p) Pull Off  (b) Bend (r) Release (v) Vibrato

Stave 1:

E|-----4-----4-------7-----2--
B|--5-----5-----5/9-----4-----
G|----------------------------
D|----------------------------
A|----------------------------
E|----------------------------

Stave 2:

E|-----------------------
B|--4r2--4r2--4r2--------
G|-----------------1--2--
D|-----------------------
A|-----------------------
E|-----------------------

Stave 3:

E|-----4-----4-------7-----2--
B|--5-----5-----5/9-----4-----
G|----------------------------
D|----------------------------
A|----------------------------
E|----------------------------

Stave 4:

E|-----------------------7-----7-----7-----7-----7-----7-----7-----7-------
B|--4r2--4r2--4--5--5/9-----9-----9-----9-----9-----9-----9-----9-----9\7--
G|-------------------------------------------------------------------------
D|-------------------------------------------------------------------------
A|-------------------------------------------------------------------------
E|-------------------------------------------------------------------------

Stave 5:

E|--5-----5-----5-----5-------4-----4-------2--
B|-----7-----7-----7-----7\5-----5-----5\4-----
G|---------------------------------------------
D|---------------------------------------------
A|---------------------------------------------
E|---------------------------------------------

							http://www.guitartabcreator.com 
A.K. If I ain't got you Created By Michels on 2021-11-12
(/) Slide Up  (\) Slide Down  (h) Hammer On  (p) Pull Off  (b) Bend (r) Release (v) Vibrato

Stave 1:

E|--9--------9--------9--------|--9--------9--------9--------|--7--------7--------7--------|--7--------7--------7--------|--
B|-----9--------9--------9-----|-----9--------9--------------|-----7--------7--------7-----|-----7--------7--------------|--
G|--------9--------9--------9--|--------9--------9-----------|--------8--------8--------8--|--------8--------8-----------|--
D|--7--------------------------|-----------------------------|--6--------------------------|--6--------------------------|--
A|-----------------------------|-----------------------------|-----------------------------|-----------------------------|--
E|-----------------------------|-----------------------------|-----------------------------|-----------------------------|--

Stave 2:

E|--5--------5--------5--------|--5--------5--------5--------|--4--------4--------4--------|--4--------5--------7--------|--
B|-----5--------5--------5-----|-----5--------5--------------|-----4--------4--------4-----|--4--------5--------7--------|--
G|--------6--------6--------6--|--------6--------6-----------|--------4--------4--------4--|-----------------------------|--
D|--4--------------------------|--4--------------------------|--2--------------------------|--2--------4--------6--------|--
A|-----------------------------|-----------------------------|-----------------------------|-----------------------------|--
E|-----------------------------|-----------------------------|-----------------------------|-----------------------------|--

Stave 3:

E|--9--------9--------9--------|--9--------9--------9--------|--7--------7--------7--------|--7--------7--------6--------|--
B|-----9--------9--------9-----|-----9--------9--------------|-----7--------7--------7-----|-----7--------7-----6--------|--
G|--------9--------9--------9--|--------9--------9-----------|--------8--------8--------8--|--------8--------------------|--
D|--7--------------------------|--7--------------------------|--6--------------------------|--6-----------------5--------|--
A|-----------------------------|-----------------------------|-----------------------------|-----------------------------|--
E|-----------------------------|-----------------------------|-----------------------------|-----------------------------|--

Stave 4:

E|--5--------5--------5--------|--5--------5--------5--------|--4--------4--------4--------|-----------------------------|--
B|-----5--------5--------5-----|-----5--------5--------------|-----4--------4--------4-----|-----------------------------|--
G|--------6--------6--------6--|--------6--------6-----------|--------4--------4--------4--|-----------------------------|--
D|--4--------------------------|--4--------------------------|--2--------------------------|--2--------------------------|--
A|-----------------------------|-----------------------------|-----------------------------|-----------------------------|--
E|-----------------------------|-----------------------------|-----------------------------|-----------------------2-----|--

Stave 5:

E|----------------------------|-------------------------------|-----------------------0-----|--0--------------0-----------|--
B|----------------------------|-------------------------------|-----------------------------|--0--------------0-----------|--
G|----------------------------|-------------------------------|--------------------4--------|--4--------------------------|--
D|--------------4/6--4--6--4--|--4-----------------4--6--4\2--|--4--2-----------2-----------|--2--------------------------|--
A|----------------------------|-------------------------------|--4-----------4--------------|--4-----------------4--------|--
E|--0-------------------------|-----------0-------------------|-----------------------------|--------------------------3--|--

Stave 6:

E|--
B|--
G|--
D|--
A|--
E|--

							http://www.guitartabcreator.com 
Friinga Christer halvarsson Created By M1xern on 2021-11-12
(/) Slide Up  (\) Slide Down  (h) Hammer On  (p) Pull Off  (b) Bend (r) Release (v) Vibrato

Stave 1:

E|--------------0--------------------3--------------------0--------------------------0--------------------0--------------------------------0--------------2h3p2--3-----------------------0-----------------------0-----------------------------------
B|-----------3-----3--------------3-----3--------------0-----0--------------------0-----0--------------0-----0--------------------------3-----3---------------3-----3-----------------0-----0-----------------0-----0--------------------------------
G|--------0-----------0-----0--2-----------2--------0-----------0--------------0-----------0--------0-----------0--------------------0-----------0-----2---------------2-----------0-----------0-----------0-----------0-----------------------------
D|-----2-----------------0-----------------------2--------------------------2--------------------2--------------------------------2-----------------0---------------------------2-----------------------2--------------------------------------------
A|--3--------------------------------------------------------------------------------------------------------------------------3---------------------------------------------------------------------------------------------------------------------
E|--------------------------------------------0--------------------------0--------------------0------------------------------------------------------------------------------0-----------------------0-----------------------------------------------

							http://www.guitartabcreator.com 
you will be okay - helluva boss (this is my first tab im sorry) Created By kriskrossapplesoause on 2021-11-12
(/) Slide Up  (\) Slide Down  (h) Hammer On  (p) Pull Off  (b) Bend (r) Release (v) Vibrato

Stave 1:

E|-----------0--------|-----------1--------|-----------0--------|--------------------3--|--0--0--0--0--0--|--------------|-----0--------------|-----0--0--|--
B|--------1-----1-----|--------3-----3-----|--------1-----1-----|--------1--------------|-----------------|--3--1--3--1--|--------3--1--0-----|-----------|--
G|-----0--------------|-----2--------------|-----2--------------|-----2-----------------|-----------------|--------------|--0--------------0--|--0--------|--
D|--------------------|--0--------------0--|--2--------------2--|--3--------3--2--0-----|-----------------|--------------|--------------------|-----------|--
A|--3--------------3--|--------------------|--------------------|-----------------------|-----------------|--------------|--------------------|-----------|--
E|--------------------|--------------------|--------------------|-----------------------|-----------------|--------------|--------------------|-----------|--

Stave 2:

E|--0-----1--0-----|--------|--0--------------|--------------|--------------|--------------|-----0--1--0--|-----------|-----------------|-----------|--1--|--
B|-----3--------1--|--------|-----3--1--0-----|--1--1--1--1--|--1--1--3--0--|--0--0--0--3--|--3-----------|--------0--|--1--1--1--3--0--|--0--0--3--|-----|--
G|-----------------|--0--0--|--------------2--|--------------|--------------|--------------|--------------|--2--2-----|-----------------|-----------|-----|--
D|-----------------|--------|-----------------|--------------|--------------|--------------|--------------|-----------|-----------------|-----------|-----|--
A|-----------------|--------|-----------------|--------------|--------------|--------------|--------------|-----------|-----------------|-----------|-----|--
E|-----------------|--------|-----------------|--------------|--------------|--------------|--------------|-----------|-----------------|-----------|-----|--

Stave 3:

E|--0-----|--------0--3--0--|--------------|--------------|--------------|-----|--------------------|-----|-----------
B|-----3--|--1--1-----------|--3--3--1--1--|--------1-----|--------------|--1--|--------------------|-----|-----------
G|--------|-----------------|--------------|--2--2-----1--|--0--0--------|-----|-----------0--------|-----|-----0-----
D|--------|-----------------|--------------|--------------|--------3--2--|-----|--3--3--3-----3--2--|-----|--3-----3--
A|--------|-----------------|--------------|--------------|--------------|-----|--------------------|--3--|-----------
E|--------|-----------------|--------------|--------------|--------------|-----|--------------------|-----|-----------

							http://www.guitartabcreator.com