Trente Karim Ouellet Created By jeanseb2001 on 2022-01-20
(/) Slide Up  (\) Slide Down  (h) Hammer On  (p) Pull Off  (b) Bend (r) Release (v) Vibrato

Capo Fret 5

Stave 1:

E|--------------------------------------------------------------------------------0---------------------------------------------------------
B|-----------1-----------1-----------1-----------0-----------0-----------1--3--------3--1----------------1-------------------1-----------1--
G|--------0-----------0-----------2-----------0-----------1-----------0-----------------------0h2--0-------------0--------0-----------0-----
D|-----2-----------2-----------3-----------------------0-----------2----------------------------------------0h2--------3-----------2--------
A|--3-----------0--------------------------2--------2-----------0-------------------------------------3-------------------------3-----------
E|--------------------------1-----------3-----------------------------------3--3--------1--1------------------------1-----------------------

Stave 2:

E|-----------------------------------------------------------------------------------------------------------------
B|-----------0-----------0-----------1-----------1-----------0-----------1-----------1-----------1-----------0-----
G|--------0-----------1-----------0-----------0-----------0-----------0-----------0-----------0-----------0--------
D|-----3-----------0-----------2-----------3-----------------------2-----------2-----------3-----------------------
A|--------------2-----------3--------------------------2--------3-----------0--------------------------2-----------
E|--1-----------------------------------1-----------3-----------------------------------1-----------3--------------

							http://www.guitartabcreator.com 
lex talionis Created By dckaelin on 2022-01-20
(/) Slide Up  (\) Slide Down  (h) Hammer On  (p) Pull Off  (b) Bend (r) Release (v) Vibrato

Riff 1: fast                                                                LEX TALIONIS

E|--------------------------------------------------------------------------------------|--
B|--------------------------------------------------------------------------------------|--
G|--------------------------------------------------------------------------------------|--
D|--------------------------------------------------------------------------------------|--
A|--5-----------5-----------1-----3-----1-----5-----------5-----------------------------|--
E|-----3--3--3-----3--3--3-----------------------3--3--3-----3--3--3-----1--------------|--

RIFF 2: fast

E|--------------------------------------------------------------------------------------------------------------------------------|--
B|--------------------------------------------------------------------------------------------------------------------------------|--
G|--------------------------------------------------------------------------------------------------------------------------------|--
D|--------------------------------------------------------------------------------------------------------------------------------|--
A|--10----------10----------6--6--6--6--6--6--5--5--5--5--5--5-----10----------10-------------------------------------------------|--
E|------10--11------10--11---------------------------------------------10--11------10--11-----5--5--5--5--5--5--1--1--1--1--1--1--|--

Riff 3: (extra) Chorus

E|-----------------------------------------------------------------------------------|-----
B|-----------------------------------------------------------------------------------|-----
G|-----------------------------------------------------------------------------------|-----
D|-----------------------------------------------------------------------------------|-----
A|-----------------1--3--3--3--3-----1-----3-----1-----3-----5--5--5--5--5--5--5--5--|-----
E|--1--3--3--3--3--------------------------------------------------------------------|-----

Riff 3: (extra) Chorus continued

E|-----------------------------------------------------------------------------------|--
B|-----------------------------------------------------------------------------------|--
G|-----------------------------------------------------------------------------------|--
D|-----------------------------------------------------------------------------------|--
A|-----------------5--3--3--3--3-----1-----3-----1-----3-----------------------------|--
E|--1--3--3--3--3--------------------------------------------1--1--1--1--1--1--1--1--|--

Riff 4: Original bass line (slow)

E|--------------------------------------------------------------------------------------------------------:|--------------------------------|--
B|--------------------------------------------------------------------------------------------------------:|--------------------------------|--
G|--------------------------------------------------------------------------------------------------------:|--------------------------------|--
D|-----------5--------------------------------------------------------------------------------------------:|--------------------------------|--
A|--------5--------6--6--6--6--6--6--5--5--5--5--5--5-----------6-----------------------------------------:|--------------------------------|--
E|--3--------------------------------------------------3-----6--------6--6--6--6--6--6--5--5--5--5--5-----:|--6-----5-----6-----1--1--1--1--|--

Riff 6: (inserts/replaces forth cycle of Riffs 2 and 3)

E|-------------------------------------------------------------------------------------------------------|--
B|-------------------------------------------------------------------------------------------------------|--
G|-------------------------------------------------------------------------------------------------------|--
D|-------------------------------------------------------------------------------------------------------|--
A|--10--10--10--10--10--10-------------------------------------------------------------------------------|--
E|-----------------------------11-----10--10--10--10--10--10--10-----5--6--5--6-----1--1--1--1--1--1--1--|--

							http://www.guitartabcreator.com 
Blues Lick 01 2022 Created By lare2170 on 2022-01-20
(/) Slide Up  (\) Slide Down  (h) Hammer On  (p) Pull Off  (b) Bend (r) Release (v) Vibrato

Stave 1:

E|--------5--8--5--------------------------------------------------------------------|:--
B|--4--5-----------x--------3--5--x--5--6--x--------------------------1--3--1--x--1--|:--
G|--------------------x--------------------------5--7--x--5--x-----------------------|:--
D|-----------------------x--------------------0--------------------------------------|:--
A|-----------------------------------------------------------------------------------|:--
E|--------------------------------------------------------------0--3-----------------|:--

Stave 2:

E|-----------------------------------------
B|-----1--3--3--5--4--x--4--2--4--3--x--3--
G|--2--------------------------------------
D|-----------------------------------------
A|-----------------------------------------
E|-----------------------------------------

Stave 3:

E|-----------------------------------------------------------------
B|-----0--1--0--------1--3--4--5--4--3--1--------------------------
G|--1-----------2--2-----------------------2--------------3--1-----
D|--------------------------------------------2--------2-----2-----
A|-----------------------------------------------3--2--------------
E|-----------------------------------------------------------------

Stave 4:

E|--------5--8--5-----5-----------------------------------
B|--4--5-----------8-----8--5--8--5-----5-----8--5--5--7--
G|-----------------------------------8-----8--------------
D|--------------------------------------------------------
A|--------------------------------------------------------
E|--------------------------------------------------------

Stave 5:

E|--------------------------------------------
B|-----5-----7--1--x--1-----------------x--1--
G|--------------------------------------x-----
D|--------------------------------------x-----
A|--0-----0-----------------3--0-----0--x-----
E|-----------------------0--------3-----------

Stave 6:

E|------10--12--13--12--13--12--10------10----------------------
B|--10------------------------------13------13--10--------------
G|--------------------------------------------------13--12--10--
D|--------------------------------------------------------------
A|--------------------------------------------------------------
E|--------------------------------------------------------------

Stave 7:

E|-------------------------------------------------
B|----------------------------------------1--3--x--
G|------12--10------10------12------------------x--
D|--12----------12------12------12--------------x--
A|-------------------------------------------------
E|----------------------------------0--3-----------

Stave 8:

E|-----------------------------------------
B|-----1--3--3--5--4--x--4-----4--3--x--3--
G|--2-----------------------4--------------
D|-----------------------------------------
A|-----------------------------------------
E|-----------------------------------------

Stave 9:

E|-----0--1--0-----------------------------------------------
B|--1-----------------1--3--4--5--4--3--1-----------------3--
G|--------------2--2-----------------------2-----------2-----
D|--------------------------------------------2--------------
A|-----------------------------------------------3--2--------
E|-----------------------------------------------------------

							http://www.guitartabcreator.com