grow as we go (intro 1-2) (verse 3-4) Created By supercow376 on 2021-11-28
(/) Slide Up  (\) Slide Down  (h) Hammer On  (p) Pull Off  (b) Bend (r) Release (v) Vibrato

Capo Fret 8

(W|WW) Whole  (H|HH) Half  (Q|QQ) Quarter  (E|EE) 8th (S|SS) 16th  (T|TT) 32nd (X|XX) 64th

Stave 1:
t:  H  Q  Q  Q  Q  Q  Q  H  Q  Q  Q  Q  Q  Q  H  Q  Q  Q  Q  Q  Q  Q  Q  Q  Q  Q  Q  Q  Q  Q  Q  Q  H  Q  Q  Q  Q  Q  Q  Q  Q  Q  Q  Q  
E|--------------------------------------------------------0-----------------------------------------0--------------------0--------------
B|--1-----------1--------1-----1-----------1--------1-----------1-----1-----------1-----1-----1-----1--1-----1-----1-----------1-----1--
G|--0-----0-----------0--0-----------0--------------------------------------2--------------------2--2-----2-----------2-----2-----2-----
D|-----2--------------------2-----------0--------2-----------2-----------2--------------------------------------------------------------
A|--3--------3-----3-----3--------2-----------0--------0-----------0--------------------------------------------------------------------
E|-----------------------------------------------------------------------------3-----0-----1--------------------1-----------------------

Stave 2:
t:  Q  Q  Q  Q  Q  Q  Q  Q  H  Q  Q  Q  Q  Q  Q  
E|-----------------------------------------------
B|-----------3--------------1-----------1--------
G|-----0-----------0-----0--------0-----------0--
D|--------0-----0-----0--------------0-----------
A|-----------------------------------------------
E|--3-----------------------3--3-----------3-----

Stave 3:
t:  H  Q  Q  Q  Q  Q  Q  H  Q  Q  Q  Q  Q  Q  H  Q  Q  Q  Q  Q  Q  Q  Q  Q  Q  Q  Q  Q  Q  Q  Q  Q  Q  Q  Q  Q  Q  Q  Q  Q  Q  Q  Q  Q  Q  
E|--------------------------------------------------------------------------------------------------0-----------------------0--------------
B|--------1-----1-----1--------1-----1-----1--------1-----------1-----------1-----------1-----------1-----------1-----------1--------------
G|-----0-----------0--------0-----------0-----------------2-----------2-----------0-----------2-----------2-----------2-----------2-----2--
D|-----------------------------------------------2-----------2-----------2-----------2-----------3-----------3-----------3-----------3-----
A|--3--------3-----------3--------2-----------0--------0-----------0-----------------------------------------------------------------------
E|-----------------------------------------------------------------------------3-----------1-----------1-----------1-----------1-----------

Stave 4:
t:  Q  Q  Q  Q  Q  Q  Q  Q  Q  Q  Q  Q  Q  Q  Q  Q  
E|--------------------------------------------------
B|-----------0-----------0--1--------1--0--------0--
G|-----0-----------0-----------0-----------0--------
D|--------0-----------0-----------0-----------0-----
A|--------------------------------------------------
E|--3-----------3-----------3-----------3-----------

							http://www.guitartabcreator.com 
ss Created By jdmap on 2021-11-28
(/) Slide Up  (\) Slide Down  (h) Hammer On  (p) Pull Off  (b) Bend (r) Release (v) Vibrato

Intro

E|-----------0-----3-----2--------------------------3-----2-----3-----------0--------------0--
B|--0--3--0--------------------------3-----0--3--0-----------------------3--------0--3--0-----
G|--------------0-----0-----------0--------------------0-----0--------2-----------------------
D|-----------------------------2-----------------------------------0--------------------------
A|--------------------------3-----------------------------------------------------------------
E|-----------0--------------------------------------3--------------------------------------0--

Verse

E|----------------------------------------------------------------------------------|--------------------------
B|--0--0--0--0h1--0-----0--------------------0--0--------------0--0-----------------|--0--------0-----------0--
G|-------------------------2--0--------0-----------2--0-----2--------2--0-----2-----|-----2-----------2--------
D|--2-------------------------------0-----0--------------------0-----------0-----0--|--0-----0-----0-----0-----
A|--2----------------3-----------3--------------------------------------------------|--------------------------
E|--0----------------------------------------3-----------3--------------------------|--------------------------

                                               Pre-Chorus

E|--------------------------------------------|--0--0-----------------0--0--------------------
B|--------0-----0-----1--0-----------0-----0--|--------3--0-----0-----------3--0-----1-----3--
G|-----0--0--0-----0--0-----0--0--0-----0--2--|--------------------0--------------------------
D|--------2-----------2--------0-----------0--|-----------------------------------------------
A|-----------------------3-----3-----3-----0--|-----------------------3--3--------3-----3-----
E|--0-----x-----0-----x--------x-----------x--|--0-----------0--------------------------------

                                         Chorus

E|--0--0--------------------3--2--3--2--|--0--------0--0-----------0-----0--0--0--0h2--
B|--------3--0-----0-----0--3--3--3--3--|-----0--0--------0--3--------1--1-------------
G|--------------------0--------------2--|--------0-------------------------------------
D|--------------------------3--3--3--0--|--------2-------------------------------------
A|--------------------------------------|--------------------------3-----------3-------
E|--0-----------0-----------------------|--0-----x-----0-----x-----------x--------x------

Stave 5:

E|-----------0-----------0-----0--0--0-----x--|--0--0--0--0--0----------------------------0--------------------
B|--3-----3--------3-----------2-----------2--|--0--------------4/5--3-----3-----------------3-----3-----0-----
G|-----0--0-----0--0--------2-----------2-----|-------------------------------0-----0--------------------------
D|--------0--------0-----0-----x-----0--------|----------------------------------0-----------------------------
A|-----------------------------------------x--|-------------------------3--------------------------------------
E|--3-----x--3-----x--------------------------|--0----------------------------------------3-----3-----3--------

Stave 6:

E|-----------
B|-----------
G|-----------
D|-----------
A|-----------
E|-----------

							http://www.guitartabcreator.com 
Performance Presentation Created By scoop on 2021-11-28
(/) Slide Up  (\) Slide Down  (h) Hammer On  (p) Pull Off  (b) Bend (r) Release (v) Vibrato

Stave 1:

E|-----2-----2-|-------------|-------------|-------------|-
B|---3-----3---|-----3-----3-|-----2-----2-|-----0-----0-|-
G|-------2-----|---4-----4---|---2-----2---|---0-----0---|-
D|-0-----------|-------4-----|-------2-----|-------------|-
A|-------------|-2-----------|-0-----------|-------2-----|-
E|-------------|-------------|-------------|-3-----------|-

Stave 2:

E|-----2-----2-|-------------|-------------|-------------|-
B|---3-----3---|-----2-----2-|-----2-----2-|-----0-----0-|-
G|-------2-----|---2-----2---|---2-----2---|---0-----0---|-
D|-0-----------|-------4-----|-------2-----|-------------|-
A|-------------|-4-----------|-0-----------|-------2-----|-
E|-------------|-------------|-------------|-3-----------|-

Stave 3:

E|-------------|-------------|-------------|-----2-----2-|-
B|-----2-----2-|-----2-----2-|-----0-----0-|---3-----3---|-
G|---2-----2---|---2-----2---|---1-----1---|-------2-----|-
D|-------4-----|-------2-----|-------2-----|-0-----------|-
A|-4-----------|-0-----------|-2-----------|-------------|-
E|-------------|-------------|-------------|-------------|-

Stave 4:

E|-------------|-------------|-------------|-------------|-
B|-----2-----2-|-----5-----5-|-----0-----0-|-----2-----2-|-
G|---2-----2---|---6-----6---|---1-----1---|---2-----2---|-
D|-------2-----|-------6-----|-------2-----|-------2-----|-
A|-0-----------|-4-----------|-2-----------|-0-----------|-
E|-------------|-------------|-------------|-------------|-

Stave 5:

E|-----2-----2-|-------------|-------------|-2-|-
B|---3-----3---|-----0-----0-|-----2-----2-|-3-|-
G|-------2-----|---0-----0---|---0-----0---|-2-|-
D|-0-----------|-------------|-------2-----|-0-|-
A|-------------|-------2-----|-0-----------|---|-
E|-------------|-3-----------|-------------|---|-

							http://www.guitartabcreator.com 
Bones - PullTheSkyDown (intro and base melody) Created By TinoBear on 2021-11-28
(/) Slide Up  (\) Slide Down  (h) Hammer On  (p) Pull Off  (b) Bend (r) Release (v) Vibrato

Those two parts down here  are connected. you repeat them as a base melody trough the whole song. Again i APOLOGISE i couldnt make the whole song ! hope you enjoy

E|--------------------------------------1--------------------------------------------4--------2-----
B|--------------------2--------1--------------1--------------------2--------1-----------------------
G|-----------3--------------------------------------------3-----------------------------------------
D|--------------------------------------------------------------------------------------------------
A|--1-----1--------1--------1--------1-----------1-----1--------1--------1--------1--------1--------
E|--------------------------------------------------------------------------------------------------

continue

E|--------------1--------------------------2-----2--2-----------1--------------------------
B|-----4-----------------1--------2--------------------4-----------------1--------2-----1--
G|-----------------------------------------------------------------------------------------
D|--1--------1--------1--------1--------1--------------------1--------1--------1-----1-----
A|-----------------------------------------------------------------------------------------
E|-----------------------------------------------------------------------------------------

							http://www.guitartabcreator.com