Pluto Created By granddukelj on 2022-05-31
(/) Slide Up  (\) Slide Down  (h) Hammer On  (p) Pull Off  (b) Bend (r) Release (v) Vibrato



E|---------------------------------------------------------------------------------------------------------------------------------
B|-----7-----7-----7-----7-----7-----7----------------7-----7-----7-----7-----7-----7----------------------------------------------
G|-----------------------------------------5\4--------------------------------------------4/5-----7-----7-----7-----7-----7-----7--
D|---------------------------------------------------------------------------------------------------------------------------------
A|---------------------------------------------------------------------------------------------------------------------------------
E|---------------------------------------------------------------------------------------------------------------------------------



E|----------------:|--------------------------2-----2-----2-----2-----------------2-----2-----2-----2----------------2-----2-----2-----2--
B|----------------:|--------------------------------------------------2-----2-----------------------------1/2--2--------------------------
G|----------------:|----------------------------------------------------------------------------------------------------------------------
D|-----5\4--------:|----------------------------------------------------------------------------------------------------------------------
A|----------------:|-----0----------------------------------------------------------------------------------------------------------------
E|----------------:|----------------------------------------------------------------------------------------------------------------------



E|----------------------------------------------------------------------------------------------------------------------------------------------
B|----------------------------------------------------------------------------------------------------------------------------------------------
G|----------------------------------------------------------------------------------------------------------------------------------------------
D|----------------------------------------------------------------------------------------------------------------------------------------------
A|-----------------------------1-----0-----1-----0-----------------------------1/2--0-----1-----0-----------------------------1/2--3/4--5/6-----
E|-----1-----0-----1-----0-----------------------------1-----0-----1-----0----------------------------1-----0-----1-----0-----------------------



E|----------------------------------------------------|-------------------------------------------------------:|-----2-----0--------------
B|----------------------------------------------------|-----7-----4-----6-----4-----5-----4-----3-----4/5-----:|-----------------2-----0--
G|----------------------------------------------------|-------------------------------------------------------:|--------------------------
D|----------------------------------------------------|-------------------------------------------------------:|--------------------------
A|-----------------------------4\3--------------------|-------------------------------------------------------:|--------------------------
E|-----1-----0-----1-----0-------------0--------------|-------------------------------------------------------:|--------------------------



E|-----------------------------------------------------------------------------------------------------------------3\2--0--------------
B|-----------------------------------------------------------------------------------------2-----0-----3-----0-------------------------
G|-----2-----0-----------------------------------------------------------------2-----0-------------------------------------------------
D|-----------------2-----0-----------------------------------------2-----0-------------------------------------------------------------
A|-----------------------------2-----0-----------------2-----0-------------------------------------------------------------------------
E|-----------------------------------------2-----0-------------------------------------------------------------------------------------

							http://www.guitartabcreator.com 
A Poem Created By reronex on 2022-05-31
(/) Slide Up  (\) Slide Down  (h) Hammer On  (p) Pull Off  (b) Bend (r) Release (v) Vibrato

Stave 1:

E|--0-----0-----0-----0-----|--0-----0-----0-----0-----|--
B|--------------------------|-----1--------------------|--
G|--------------------------|--------------------------|--
D|--------------------------|--------------------------|--
A|--------------------------|--------------------------|--
E|--------------------------|--------------------------|--

Stave 2:

E|--0-----0-----0-----0-----|--0-----0-----0-----0-----|--0-----0-----0-----0-----|--0-----0-----0-----0-----|--
B|-----1-----1-----1-----1--|-----0-----0-----0-----0--|-----1-----1-----1-----1--|-----0-----0-----0-----0--|--
G|--------------------------|--------------------------|--------------------------|--------------------------|--
D|--------------------------|--------------------------|--------------------------|--------------------------|--
A|--------------------------|--------------------------|--------------------------|--------------------------|--
E|--------------------------|--------------------------|--------------------------|--------------------------|--

Stave 3:

E|--0--------0--------0-----|--0--------0--------0-----|--0--------0--------0-----|--0--------0--------0-----|--
B|-----1--------1--------1--|-----1--------1--------1--|-----0--------0--------0--|-----0--------0--------0--|--
G|--------1--------1--------|--------0--------0--------|--------1--------1--------|--------1--------1--------|--
D|--------------------------|--------------------------|--------------------------|--------------------------|--
A|--------------------------|--------------------------|--------------------------|--------------------------|--
E|--------------------------|--------------------------|--------------------------|--------------------------|--

Stave 4:

E|--0-----------------0-----|--0-----------------0-----|--0-----------------0-----|--0-----------------0-----|--
B|-----1-----------1-----1--|-----1-----------1-----1--|-----0-----------0-----0--|-----0-----------0-----0--|--
G|--------1-----1-----------|--------0-----0-----------|--------1-----1-----------|--------1-----1-----------|--
D|-----------0--------------|-----------2--------------|-----------2--------------|-----------2--------------|--
A|--------------------------|--------------------------|--------------------------|--------------------------|--
E|--------------------------|--------------------------|--------------------------|--------------------------|--

Stave 5:

E|--
B|--
G|--
D|--
A|--
E|--

							http://www.guitartabcreator.com 
Public - Make You Mine (Guitar Solo 1) Created By christiansalunga on 2022-05-31
(/) Slide Up  (\) Slide Down  (h) Hammer On  (p) Pull Off  (b) Bend (r) Release (v) Vibrato

Stave 1:

E|----------------------------------------------------------------------------------------------------------14-------------------------------------------------------14-------------------------------------------------------17--16--14---------------------------------------------------------------------
B|-----12-----14-------------------14-----12-----------------------14--17--14--17--14-----------17--14--17------17--14--------------17--17--14-----------17--14--17------17--14--------------17--17--14-----------17--14--17--------------17----------17--17--14----------------------------------15-----14--
G|-------------------14-----11------------------------------------------------------------------------------------------16--13--13-----------------------------------------------16--14--14---------------------------------------------------13--13-----------------------16--14--13--14--16----------------
D|-----------------------------------------------------------------------------------------------------------------------------------------------------------------------------------------------------------------------------------------------------------------------------------------------------------
A|-----------------------------------------------------------------------------------------------------------------------------------------------------------------------------------------------------------------------------------------------------------------------------------------------------------
E|-----------------------------------------------------------------------------------------------------------------------------------------------------------------------------------------------------------------------------------------------------------------------------------------------------------

							http://www.guitartabcreator.com 
Solar System Created By granddukelj on 2022-05-31
(/) Slide Up  (\) Slide Down  (h) Hammer On  (p) Pull Off  (b) Bend (r) Release (v) Vibrato

Mercury (fast)

E|--------------------3-----------------1-----------------4--------------3-----------------------------6--------------10--------------6-----------
B|------------------------------------------------------------------------------------------------------------------------------------------------
G|------------------------------------------------------------------------------------------------------------------------------------------------
D|------------------------------------------------------------------------------------------------------------------------------------------------
A|------------------------------------------------------------------------------------------------------------------------------------------------
E|-----0--------------------------------------------------------------------------------0---------------------------------------------------------



E|-----11-----------------------------------------------------------------------------------------------------------------------------------
B|------------------------------------------------------------------------------------------------------------------------------------------
G|------------------------------------------------------------------------------------------------------------------------------------------
D|---------------------------------------x-----x-----x--x--x--x--x--x-----x-----x-----x--x-----x--------------------------------x-----x-----
A|------------------------------------------------------------------------------------------------------------------------------------------
E|---------------------0-----------------------------------------------------------------------------------------0--------------------------



E|-----------------------------------------------------------------------------------------------------------------------------------------3-----
B|-----------------------------------------------------------------------------------------------------------------------------------------------
G|-----------------------------------------------------------------------------0-----0-----0--0--0--0--0--0-----0-----0-----0--0-----0-----------
D|-----x--x--x--x--x--x-----x-----x-----x--x-----x-----------------------------------------------------------------------------------------------
A|--------------------------------------------------------------0--------------------------------------------------------------------------------
E|-----------------------------------------------------------------------------------------------------------------------------------------------

Venus (slow)

E|-----5--------------9--------------------------------------------------------------------------9--------------12--------------9-----------
B|-----------------------------------5--------------------------------------------9---------------------------------------------------------
G|--------------------------------------------------5--------------8------------------------------------------------------------------------
D|------------------------------------------------------------------------------------------------------------------------------------------
A|------------------------------------------------------------------------------------------------------------------------------------------
E|------------------------------------------------------------------------------------------------------------------------------------------



E|-----13--------------9------------------------------------------------------------------------------------------------------------------------------
B|------------------------------------13--------------9-----------------------------------------------------------------------------------------------
G|-------------------------------------------------------------------12--------------9----------------------------------------------------------------
D|--------------------------------------------------------------------------------------------------12--------------9---------------------------------
A|---------------------------------------------------------------------------------------------------------------------------------12--------------9--
E|----------------------------------------------------------------------------------------------------------------------------------------------------



E|---------------------------------------------------------------------------------------------------------------------------------------------
B|---------------------------------------------------------------------------------------------------------------------------------------------
G|---------------------------------------------------------------------------------------------------------------------------------7-----------
D|--------------------------------------------------------------------------------------------------7--------------10--------------------------
A|-------------------------------------------------------------------7--------------10---------------------------------------------------------
E|-----13--------------9--------------7--------------11----------------------------------------------------------------------------------------

(speed up)

E|----------------------------------------------------7--------------11--------------12--------------9-----7--------5-----3--------------------------
B|---------------------7--------------11-------------------------------------------------------------------------------------------------------------
G|-----10--------------------------------------------------------------------------------------------------------------------------------------------
D|---------------------------------------------------------------------------------------------------------------------------------------------------
A|---------------------------------------------------------------------------------------------------------------------------------------------------
E|---------------------------------------------------------------------------------------------------------------------------------------------------

Earth (slow down)

E|-----------------3-----------------3-----------------------2-----------------2-----------------------0-----------------0-----------------
B|--------------0-----0-----------0-----------------------3-----3-----------3-----------------------1-----1-----------1--------------------
G|-----------0-----------0-----0-----------------------2-----------2-----2-----------------------2-----------2-----2-----------------------
D|--------------------------------------------------0-----------------0--------------------------------------------------------------------
A|--------------------------------------------------------------------------------------------0-----------------0--------------------------
E|--------3-----------------3--------------------------------------------------------------------------------------------------------------



E|--------------0-----------------0-----------------------0-----------------0-----------------------3-----------------3--------------------
B|-----------1-----1-----------1-----------------------1-----1-----------1-----------------------1-----1-----------1-----------------------
G|--------0-----------0-----0-----------------------0-----------0-----0-----------------------2-----------2-----2--------------------------
D|-----------------------------------------------------------------------------------------0-----------------0-----------------------------
A|-----3-----------------3-----------------------------------------------------------------------------------------------------------------
E|-----------------------------------------------3-----------------3-----------------------------------------------------------------------



E|--------------3-----------------3--------------------------3-----------------3-----------------------------3-----------------3-----------------
B|-----------1-----1-----------1-----1--------------------1-----1-----------1-----1-----------------------1-----1-----------1-----1--------------
G|--------2-----------2-----2--------------------------2-----------2-----2-----------2-----------------2-----------2-----2-----------2-----------
D|-----0-----------------0--------------------------0-----------------0-----------------------------0-----------------0--------------------------
A|-----------------------------------------------------------------------------------------------------------------------------------------------
E|--------------------------------------------------------------------------------------------------------------------------------------0--------

Mars (faster)

E|-----------------------------------------------------------------------------------------------------------------------------------------
B|-----------------------------------------------------------------------------------------------------------------------------4-----------
G|-----------------------------------------------------------------------------------------------------------------------------------------
D|-----x--x-----1--0--------------x--x-----1--2--------------x--x-----1-----2-----1-----2--------------x--x-----1-----2--------------------
A|-----x--x-----1--0--------------x--x-----1--2--------------x--x-----1-----2-----1-----2--------------x--x-----1-----2--------------------
E|-----x--x-----1--0--------------x--x-----1--2--------------x--x-----1-----2-----1-----2--------------x--x-----1-----2--------------------



E|-----------------------------------------------------------------------------------------------------------------------------------------
B|-----------------------------------------------------------------------------------------------------------------------------------------
G|-----------------------------------------------------------------------------------------------------------------------------------------
D|-----x--x-----1--0--------------x--x-----1--2--------------x--x-----1-----2-----1-----2--------------x--x-----1-----2-----3--------------
A|-----x--x-----1--0--------------x--x-----1--2--------------x--x-----1-----2-----1-----2--------------x--x-----1-----2-----3--------------
E|-----x--x-----1--0--------------x--x-----1--2--------------x--x-----1-----2-----1-----2--------------x--x-----1-----2-----3--------------



E|-----------------------------------------------------------------------------------------------------------------------------------------
B|-----------------------------------------------------------------------------------------------------------------------------------------
G|-----------------------------------------------------------------------------------------------------------------------------------------
D|-----x--x-----1--0--------------x--x-----1--2--------------x--x-----1-----2-----1-----2--------------x--x-----1-----2-----0--------------
A|-----x--x-----1--0--------------x--x-----1--2--------------x--x-----1-----2-----1-----2--------------x--x-----1-----2-----0--------------
E|-----x--x-----1--0--------------x--x-----1--2--------------x--x-----1-----2-----1-----2--------------x--x-----1-----2-----0--------------

Jupiter (even faster)

E|-----------------------------------------------------------------------------------------------------------------------------------------------
B|-----------------------------------------------------------------------------------------------------------------------------------------------
G|-----------------------------------------------------------------------------------------------------------------------------------------------
D|-----------------------------------------------------------------------------------------------------------------------------------------------
A|-----------------------------------------------------------------------------------------------------------------------------------------------
E|-----0-----0--0--0--0-----2--------------0-----0--0--0--0-----3--2--------0-----0--0--0--0-----2--------------0-----0--0--0--0-----0--3--------



E|-----------------------------------------------------------------------------------------------------------------------------------------------
B|-----------------------------------------------------------------------------------------------------------------------------------------------
G|-----------------------------------------------------------------------------------------------------------------------------------------------
D|-----------------------------------------------------------------------------------------------------------------------------------------------
A|-----------------------------------------------------------------------------------------------------------------------------------------------
E|-----0-----0--0--0--0-----2-----------0--0-----0--0--0--0-----3--2-----0--0-----0--0--0--0-----2-----------0--0-----0--0--0--0-----0--3--------

(as fast as possible)

E|-----------------------------------------------------------------------------------------------------------------------------------
B|-----------------------------------------------------------------------------------------------------------------------------------
G|-----------------------------------------------------------------------------------------------3--3--3--3--3--3--4--4--4--4--4--4--
D|-----------------------------------------------------------1--1--1--1--1--1--3--3--3--3--3--3--------------------------------------
A|-----------------------1--1--1--1--1--1--3--3--3--3--3--3--------------------------------------------------------------------------
E|-----4--4--4--4--4--4--------------------------------------------------------------------------------------------------------------



E|-----------------------------------------------------------------
B|-----------------------------------------------------------------
G|-----5--5--5--5--5--5--6--6--6--6--6--6--7-----------------------
D|-----------------------------------------------------------------
A|-----------------------------------------------------------------
E|-----------------------------------------------------------------

Saturn (change speed and volume randomly)

E|--------------------------------------------------12--9-----9-----13--------------9-----------13-----------9-----------13-----------9-------------------------
B|-----12--15--12--------------------12--13--12---------------------------------------------------------------------------------------------12-----9------------
G|--------------------15--17--15-------------------------------------------------------------------------------------------------------------------------12-----
D|--------------------------------------------------------------------------------------------------------------------------------------------------------------
A|--------------------------------------------------------------------------------------------------------------------------------------------------------------
E|--------------------------------------------------------------------------------------------------------------------------------------------------------------



E|--------------------------------------------------------3-----1--------------------------------------4-----2--------------------------------------
B|--------------------------------------------------------------------3--------------------------------------------4--------------------------------
G|-----9--------------------------------------------------------------------1--------------------------------------------2--------------------------
D|-----------12-----9-------------------------------------------------------------3--------------------------------------------4--------------------
A|------------------------12-----9------------------------------------------------------1--------------------------------------------2--------------
E|-------------------------------------13-----9-----------------------------------------------3--------------------------------------------4--------



E|-----5-----3-----------------------------------------6-----4--------------------------------------7-----5-----------------------------------5--
B|-----------------5-----------------------------------------------6--------------------------------------------7-----------------------7--------
G|-----------------------3-----------------------------------------------4--------------------------------------------5-----------5--------------
D|-----------------------------5-----------------------------------------------6--------------------------------------------7--------------------
A|-----------------------------------3-----------------------------------------------4-----------------------------------------------------------
E|-----------------------------------------5-----------------------------------------------6-----------------------------------------------------

Uranus (normal speed)

E|--------------------------------------0-----------0-----------------------------------------------1-----------1-----------
B|--------------------------------------------0-----------------------------------------------------------1-----------------
G|-----0-----------------------------------------------------------1--------------------------------------------------------
D|-----------0-----------------------------------------------------------1--------------------------------------------------
A|-----------------0-----------------------------------------------------------1--------------------------------------------
E|-----------------------0-----------------------------------------------------------1--------------------------------------



E|--------------------------------------2-----------2-----------------------------------------------3-----------3-----------
B|--------------------------------------------2-----------------------------------------------------------3-----------------
G|-----2-----------------------------------------------------------3--------------------------------------------------------
D|-----------2-----------------------------------------------------------3--------------------------------------------------
A|-----------------2-----------------------------------------------------------3--------------------------------------------
E|-----------------------2-----------------------------------------------------------3--------------------------------------



E|--------------------------------------4-----------4-----------------------------------------------5-----------5-----7-----------7-----9--------
B|--------------------------------------------4-----------------------------------------------------------5-----------------7--------------------
G|-----4-----------------------------------------------------------5-----------------------------------------------------------------------------
D|-----------4-----------------------------------------------------------5-----------------------------------------------------------------------
A|-----------------4-----------------------------------------------------------5-----------------------------------------------------------------
E|-----------------------4-----------------------------------------------------------5-----------------------------------------------------------

Neptune (slow)

E|--------------------------------------------------------------12-----------------------------------------------------------------13--------------
B|-------------------------------------------------------------------------------------------------------------------------------------------------
G|-------------------------------------------------------------------------------------------------------------------------------------------------
D|-------------------------------------------------------------------------------------------------------------------------------------------------
A|-------------------------------------------------------------------------------------------------------------------------------------------------
E|-----0-----------1-----------2-----------1-----------0------------------0-----------1-----------2-----------1-----------0------------------------



E|--------------------------------------------------------------14-----------------------------------------------------------------15--------------
B|-------------------------------------------------------------------------------------------------------------------------------------------------
G|-------------------------------------------------------------------------------------------------------------------------------------------------
D|-------------------------------------------------------------------------------------------------------------------------------------------------
A|-------------------------------------------------------------------------------------------------------------------------------------------------
E|-----0-----------1-----------2-----------1-----------0------------------0-----------1-----------2-----------1-----------0------------------------



E|--------------------------------------------------------------16-----------------------------------------------------------------17--------------
B|-------------------------------------------------------------------------------------------------------------------------------------------------
G|-------------------------------------------------------------------------------------------------------------------------------------------------
D|-------------------------------------------------------------------------------------------------------------------------------------------------
A|-------------------------------------------------------------------------------------------------------------------------------------------------
E|-----0-----------1-----------2-----------1-----------0------------------0-----------1-----------2-----------1-----------0------------------------



E|-----15-----12-----9-----7-----5-----3-----0--------------0--------------------------
B|----------------------------------------------------------0--------------------------
G|----------------------------------------------------------0--------------------------
D|----------------------------------------------------------2--------------------------
A|----------------------------------------------------------2--------------------------
E|----------------------------------------------------------0--------------------------

							http://www.guitartabcreator.com 
Kanye West - Devil In A New Dress Created By IbMo43 on 2022-05-31
(/) Slide Up  (\) Slide Down  (h) Hammer On  (p) Pull Off  (b) Bend (r) Release (v) Vibrato

Main bass & guitar part (first section plays first, then next section, then first again, then last section)

E|------------------------------------------|----------------------------------------|-----------------------------------------------|--
B|------------------------------------------|----------------------------------------|-----------------------------------------------|--
G|--------4h6--4-----------4h6--4-----------|-----------8--8--------8--10--11--------|--------------8-----------------------8--8--8--|--
D|----------------6----------------6--------|--8--8--8-----------8-------------------|--8--8--8--8--------8--8--8--9--9--9-----------|--
A|--7----------------7----------------7--6--|-------------------------------------6--|-----------------------------------------------|--
E|------------------------------------------|----------------------------------------|-----------------------------------------------|--

Funk guitar (during bridge - 1st section twice, next section twice)

E|--------------------------------------------|------------------------------------------------|--
B|--------------9--------9--------9--------9--|--------------11--------11--------11--------11--|--
G|--x--x--x--x--8--x--x--8--x--x--8--x--x--8--|--x--x--x--x--11--x--x--11--x--x--11--x--x--11--|--
D|--------------------------------------------|------------------------------------------------|--
A|--------------------------------------------|------------------------------------------------|--
E|--------------------------------------------|------------------------------------------------|--

Guitar solo part 1 (played twice)

E|-------------------------------------------------|-------------|--
B|-------------------------------------------------|-------------|--
G|--6h8--6--6h8-----6h8--4h6--4-----4--4--------4--|-------------|--
D|----------------------------------------6--6-----|--4h6-----4--|--
A|-------------------------------------------------|-------------|--
E|-------------------------------------------------|-------------|--

Guitar solo part 2

E|--------------------------------------------------------------------------------------------19b21r19--16-----14h16---------------------------------|--
B|--------------------------------------------------------------------------------------------------------------------14--12-------------------------|--
G|--6b8r4--------------------------------------------------------------------11h13--11-------------------------------------------14b16-----11h13p11--|--
D|---------6-----11h13--11--11h13-----11h13--9h11--9-----9--9----------9-----------------------------------------------------------------------------|--
A|-------------------------------------------------------------11--11--------------------------------------------------------------------------------|--
E|---------------------------------------------------------------------------------------------------------------------------------------------------|--

							http://www.guitartabcreator.com 
Rod Wave - Close Enough To Hurt Created By IbMo43 on 2022-05-31
(/) Slide Up  (\) Slide Down  (h) Hammer On  (p) Pull Off  (b) Bend (r) Release (v) Vibrato

Guitar part 1

E|----------------------------|----------------------|---------------------------------|-------------5------------------------|--
B|---9h10-----10-----7-----7--|--5h7--5-----3-----3--|------------------5--4--3--------|-------5--7--------7-----10--9--------|--
G|--9---------9------6-----6--|--6----4-----2-----2--|--4h6--4\2--------4--3--2--------|--4\6--------------5-----8---7--------|--
D|--11--------11-----7-----7--|--7----6-----4-----4--|------------4-----6--5--4-----4--|-------------------7-----10--9--------|--
A|--9---------9------5--------|--5----4-----2--------|---------------------------------|----------------6--6-----9---8-----8--|--
E|----------------------------|----------------------|---------------------------------|--------------------------------------|--

guitar part 2

E|-------------7------------|---9h10/12\10-----10--|---------14--------------------|----------------------|----------------------------------------9--7--|--
B|-------7--9---------9h10--|--x-----x--x----------|--12------------10-----10--12--|--5h7--5-----3-----3--|--4h6--4/2-------------------------6/9--------|--
G|--7\9--------------9------|--11----13-11-----11--|--13------------9--------------|--6----4-----2-----2--|--4h6--4\2--4-----7--4--------4/6-------------|--
D|-------------------11-----|--9-----11-9------9---|--14------------11-------------|--7----6-----4-----4--|------------4-----6--3-----3------------------|--
A|-------------------9------|----------------------|--14------------9--------------|--5----4-----2--------|----------------------------------------------|--
E|--------------------------|----------------------|-------------------------------|----------------------|------------------7--4------------------------|--

							http://www.guitartabcreator.com