Oceans - G Fingering Created By ChillyWillWall on 2021-06-18
(/) Slide Up  (\) Slide Down  (h) Hammer On  (p) Pull Off  (b) Bend (r) Release (v) Vibrato

Intro / Verse 1

E|--------0-----------0-----------0-----------2--------------3-----------3-----------3-----------3-----------------------------------------------------
B|-----------------------------------------------------------------------------------------------------------3-----------3-----------3-----------3-----
G|-----0-----------0-----0-----0-----------2-----2--------4-----------4-----4-----4-----------4-----4-----2-----------2-----2-----2-----------2-----2--
D|--2--------2--2-----------2--------2--4--------------5--------5--5-----------5--------5--5-----------0--------0--0-----------0--------0--0-----------
A|-----------------------------------------------------------------------------------------------------------------------------------------------------
E|-----------------------------------------------------------------------------------------------------------------------------------------------------



E|--------------------------------------------------:|--
B|--------1-----------1-----------1-----------------:|--
G|-----0-----------0-----0-----0-----------0-----2--:|--
D|--------------------------------------------0-----:|--
A|--3--------3--3-----------3--------3--3-----------:|--
E|--------------------------------------------------:|--

Chorus (Repeat first phrase 3 times)

E|--------------------------------------------------------------------------------------------------:|--
B|--------1-----------1-----------3-----------3-----------3-----------3-----------3-----------3-----:|--
G|-----0-----------0-----0-----0-----------0-----0-----2-----------2-----2-----2-----------2-----2--:|--
D|--------------------------------------------------0--------0--0-----------0--------0--0-----------:|--
A|--3--------3--3-----------------------------------------------------------------------------------:|--
E|--------------------------3--------3--3-----------------------------------------------------------:|--



E|--------------------------------------------------
B|--------1-----------1-----------3-----------3-----
G|-----0-----------0-----0-----2-----------2-----2--
D|--------------------------0--------0--0-----------
A|--3--------3--3-----------------------------------
E|--------------------------------------------------

Interlude

E|--------0-----------0-----------0-----------2-----------3-----------3-----------3-----------3-----------------------------------------------------
B|--------------------------------------------------------------------------------------------------------3-----------3-----------3-----------3-----
G|-----------------------------------------2-----2-----4-----------4-----4-----4-----------4-----4-----2-----------2-----2-----2-----------2-----2--
D|-----0-----------0-----0-----0--------------------5--------5--5-----------5--------5--5-----------0--------0--0-----------0--------0--0-----------
A|--2--------2--2-----------2--------2--4-----------------------------------------------------------------------------------------------------------
E|--------------------------------------------------------------------------------------------------------------------------------------------------



E|--------------------------------------------------
B|--------1-----------1-----------1-----------1-----
G|-----2-----------2-----2-----2-----------2-----2--
D|--------------------------------------------------
A|--0--------0--0-----------0--------0--0-----------
E|--------------------------------------------------

							http://www.guitartabcreator.com 
Chan Chan solo trompeta Created By Benjamart54 on 2021-06-18
(/) Slide Up  (\) Slide Down  (h) Hammer On  (p) Pull Off  (b) Bend (r) Release (v) Vibrato

Solo Trompeta

E|--------1--3--5-----1--0-----5--1--0-----6--3-----3-----
B|--1--3--------------------3-----------3--------3-----2--
G|--------------------------------------------------------
D|--------------------------------------------------------
A|--------------------------------------------------------
E|--------------------------------------------------------

Stave 2:

E|--------------1-----------0-----------1--0--------
B|--------3--3-----3--1--1-----1--------------3--2--
G|--2--2--------------------------3--3--------------
D|--------------------------------------------------
A|--------------------------------------------------
E|--------------------------------------------------

Stave 3:

E|-----0-----0-----0--1--3--5--------1--3--3--1--0-----------
B|--2-----3-----2-----------------1-----------------3--2-----
G|-----------------------------------------------------------
D|-----------------------------------------------------------
A|-----------------------------------------------------------
E|-----------------------------------------------------------

Stave 4:

E|-----------1-----------0--------1--0--------
B|--------3-----3--1--1-----1-----------3--2--
G|--2--2-----------------------3--------------
D|--------------------------------------------
A|--------------------------------------------
E|--------------------------------------------

							http://www.guitartabcreator.com 
My week in licks! Created By jmeeks on 2021-06-18
(/) Slide Up  (\) Slide Down  (h) Hammer On  (p) Pull Off  (b) Bend (r) Release (v) Vibrato

Monday

E|--10--10--10p6---------------------------------------------------------
B|----------------10--6----------------------------------------15b16r15--
G|-----------------------8--7----------------------3--5/7b8r7------------
D|-----------------------------8\5--3h5p3-----3h5------------------------
A|-----------------------------------------5-----------------------------
E|-----------------------------------------------------------------------

Tuesday

E|---------------------------------------------------------------------------------
B|-----5p0-----8p0-----5p0-----------------------5p0-----8p0------10p0------13--5--
G|----------5------------------5p0-----5p4p0----------5-----------------10---------
D|--7---------------7-------------------------7---------------12----------------7--
A|--------------------------7-------5----------------------------------------------
E|---------------------------------------------------------------------------------

Wednesday

E|----------------------------------13---------------------------------------------------13----------------
B|------------------------------------------13---------------------------------------------------13/15\13--
G|-----------------10p9---------10------------------12------------------10p9---------10--------------------
D|----------10h12--------10h12----------10----------------------10--12--------10h12----------10------------
A|------12--------------------------------------10----------12---------------------------------------------
E|--13--------------------------------------------------13-------------------------------------------------

Thursday

E|--9b10r9--7--10b11--7-----------------------------------
B|-----------------------9b10--7-------------------7------
G|--------------------------------7b8r7p6----------7h8----
D|-----------------------------------------7/9--9-------9\
A|--------------------------------------------------------
E|--------------------------------------------------------

Friday

E|--3----------------------------------------------
B|-----6p3-----3-----------------------------------
G|----------5-----5p3-----3------------------------
D|---------------------5-----5p3-----3-------------
A|--------------------------------5-----5p3--------
E|-------------------------------------------6--3--

Saturday

E|-----12-----11---------|-----12-----11---------|------------------
B|-------------------12--|-------------------12--|-----10--------9--
G|--9------9------9------|--9------9------9------|------------------
D|-----------------------|-----------------------|--7------9/11-----
A|-----------------------|-----------------------|------------------
E|-----------------------|-----------------------|------------------

Sunday

E|------------------5---------------------5--5--|------------------5-------------------|--
B|-------5--8--6/7-----8--4/5-------------5--5--|-------5--8--6/7-----8--4/5--------5--|--
G|--6/7------------------------7p5--------5--5--|--6/7------------------------7--5--5--|--
D|----------------------------------7--7--7-----|-----------------------------------4--|--
A|----------------------------------------------|-----------------------------------5--|--
E|----------------------------------------------|--------------------------------------|--

Sunday cont.

E|------------------5-----------8---------|------------------------------8--|--5--
B|-------5--8--6/7-----8--9/10-----8--10--|-----------------5------------8--|--5--
G|--6/7-------------------------------9---|--9\7p5-----6/7-----4/5-------7--|--5--
D|------------------------------------10--|---------7---------------7p5--6--|--5--
A|----------------------------------------|------------------------------7--|--7--
E|----------------------------------------|---------------------------------|--5--

							http://www.guitartabcreator.com