Training Exercises Created By pmele57 on 2021-11-15
(/) Slide Up  (\) Slide Down  (h) Hammer On  (p) Pull Off  (b) Bend (r) Release (v) Vibrato

90 bpm

E|-----------------------------------------------------------------------------|-----------------------------------------------------------------------------------------------------------------------------------------------------|--
B|-----------------------------------------------------------------------------|-----------------------------------------------------------------------------------------------------------------------------------------------------|--
G|-----------------------------------------------------------------------------|-----------------------------------------------------------------------------------------------------------------------------------------------------|--
D|-----------------------------------------------------------------------------|-----------------------------------------------------------------------------------------------------------------------------------------------------|--
A|-----------------------------------------------------------------------------|-----------------------------------------------------------------------------------------------------------------------------------------------------|--
E|--1--3--4--1--3--4--1--3--4--1--3--4--1--3--4--1--3--4--1--3--4--1--3--4-----|-----3--4--6--3--4--6--3--4--6--3--4--6--3--4--6--3--4--6--3--4--6--3--4--6--4--6--8--4--6--8--4--6--8--4--6--8--4--6--8--4--6--8--4--6--8--4--6--8--|--

Stave 2:

E|--------------------------------------------------------------------------------------------1--2--3--4--3--2--1-----|--
B|--------------------------------------------------------------------------1--2--3--4--3--2--------------------------|--
G|--------------------------------------------------------1--2--3--4--3--2--------------------------------------------|--
D|--------------------------------------1--2--3--4--3--2--------------------------------------------------------------|--
A|--------------------1--2--3--4--3--2--------------------------------------------------------------------------------|--
E|--1--2--3--4--3--2--------------------------------------------------------------------------------------------------|--

null

E|-----------------------------------------------------------------------------------------------------------------------------------3-----------------3--4--6--4--3--1-----|--
B|--------------------------------------------------------------------------------------------2-----------------2-----------2--4--6-----6--4--2--4--6-----------------------|--
G|-----------------------------------------------------------------1-----------------1--3--5-----5--3--1--3--5-----5--3--1--------------------------------------------------|--
D|--------------------------------------1-----------------1--3--5-----5--3--1--3--5-----------------------------------------------------------------------------------------|--
A|-----------1-----------------1--3--4-----4--3--1--3--4--------------------------------------------------------------------------------------------------------------------|--
E|--1--3--4-----4--3--1--3--4-----------------------------------------------------------------------------------------------------------------------------------------------|--

Stave 4:

E|-----------------------------------------------------------------------------------------------------------------------3--------------3--5--6--5--3--1--|--
B|--------------------------------------------------------------------------------------------3-----------------3--5--6-----6--5--3--5--6-----------------|--
G|-----------------------------------------------------------------2-----------------2--3--5-----5--3--2--3--5--------------------------------------------|--
D|--------------------------------------2-----------------2--3--5-----5--3--2--3--5-----------------------------------------------------------------------|--
A|-----------1-----------------1--3--5-----5--3--1--3--5--------------------------------------------------------------------------------------------------|--
E|--1--3--5-----5--3--1--3--5-----------------------------------------------------------------------------------------------------------------------------|--

Stave 5:

E|--------------------------------------------------------------------------------------------------------------------------------------------|--
B|--------------------------------------------------------------------------------------------------------------------------------------------|--
G|--------------------------------------------------------------------------------------------------------------------------------------------|--
D|--------------------------------------------------------------------------------------------------------------------------------------------|--
A|--------------------------------------------------------------------------------------------------------------------------------------------|--
E|--0--1--3--0--3--4--0--4--6--0--6--8--0--8--9--0--9--11--0--11--13--0--13--11--0--11--9--0--9--8--0--8--6--0--6--4--0--4--3--0--3--1--0--1--|--

Stave 6:

E|-----------------------------------------------------------------------------------------------------------------------------------------------------------------------------------------------------------------------8--------7--8-----6--7--8--5--6--7--8--|--
B|-----------------------------------------------------------------------------------------------------------------------------------------------------------------------8--------7--8-----6--7--8--5--6--7--8--5--6--7-----5--6--------5-----------------------|--
G|-----------------------------------------------------------------------------------------------------------------------8--------7--8-----6--7--8--5--6--7--8--5--6--7-----5--6--------5-----------------------------------------------------------------------|--
D|-----------------------------------------------------------------------8--------7--8-----6--7--8--5--6--7--8--5--6--7-----5--6--------5-----------------------------------------------------------------------------------------------------------------------|--
A|-----------------------8--------7--8-----6--7--8--5--6--7--8--5--6--7-----5--6--------5-----------------------------------------------------------------------------------------------------------------------------------------------------------------------|--
E|--5--6--7--8--5--6--7-----5--6--------5-----------------------------------------------------------------------------------------------------------------------------------------------------------------------------------------------------------------------|--

Stave 7:

E|--------------------------------------------------------------------------------------------------------------------------------------------------------------------------------------------------------------5-----------5--6--------5--6--7-----5--6--7--8--|--
B|--------------------------------------------------------------------------------------------------------------------------------------------------------------5-----------5--6--------5--6--7-----5--6--7--8-----6--7--8--------7--8-----------8--------------|--
G|--------------------------------------------------------------------------------------------------------------5-----------5--6--------5--6--7-----5--6--7--8-----6--7--8--------7--8-----------8--------------------------------------------------------------|--
D|--------------------------------------------------------------5-----------5--6--------5--6--7-----5--6--7--8-----6--7--8--------7--8-----------8--------------------------------------------------------------------------------------------------------------|--
A|--------------5-----------5--6--------5--6--7-----5--6--7--8-----6--7--8--------7--8-----------8--------------------------------------------------------------------------------------------------------------------------------------------------------------|--
E|--5--6--7--8-----6--7--8--------7--8-----------8--------------------------------------------------------------------------------------------------------------------------------------------------------------------------------------------------------------|--

Stave 8:

E|-----------------------------------------------------------------------------|--
B|-----------------------------------------------------------------------------|--
G|-----------------------------------------------------------------------------|--
D|-----------------------------------------------------------------------------|--
A|-----------------------------------------------------------------------------|--
E|--5--6--7--8--5--6--8--7--5--7--6--8--5--7--8--6--5--8--6--7--5--8--7--6--5--|--

Stave 9:

E|--|:--2--3--2--3--2--3--2--3--2--3--2--3--2--3--2--3--|--2--4--2--4--2--4--2--4--2--4--2--4--2--4--2--4--|--2--5--2--5--2--5--2--5--2--5--2--5--2--5--2--5--|--2--4--2--4--2--4--2--4--2--4--2--4--2--4--2--4--:|--
B|--|:--------------------------------------------------|--------------------------------------------------|--------------------------------------------------|--------------------------------------------------:|--
G|--|:--------------------------------------------------|--------------------------------------------------|--------------------------------------------------|--------------------------------------------------:|--
D|--|:--------------------------------------------------|--------------------------------------------------|--------------------------------------------------|--------------------------------------------------:|--
A|--|:--------------------------------------------------|--------------------------------------------------|--------------------------------------------------|--------------------------------------------------:|--
E|--|:--------------------------------------------------|--------------------------------------------------|--------------------------------------------------|--------------------------------------------------:|--

							http://www.guitartabcreator.com