Harry Potter Theme v1 Created By TJA2022 on 2022-01-19
(/) Slide Up  (\) Slide Down  (h) Hammer On  (p) Pull Off  (b) Bend (r) Release (v) Vibrato

Stave 1:

E|--|-----0--3--2--0-----7--5--2-----|--0--3--2--------------|-----0--3--2--0--7--10--9--8-----|-----8--7--6-----3--0-----|-----
B|--|--0-----------------------------|-----------4--6--0-----|--0------------------------------|--9-----------------------|-----
G|--|--------------------------------|-----------------------|---------------------------------|--------------3-----------|-----
D|--|--------------------------------|-----------------------|---------------------------------|--------------------------|-----
A|--|--------------------------------|-----------------------|---------------------------------|--------------------------|-----
E|--|--------------------------------|-----------------------|---------------------------------|--------------------------|-----

Stave 2:

E|-----7-----7-----8--7--6-----------|--------7--6--------7--|-----7-----7-----10--9--8--|-----8--7--6-----3--0-----|--
B|--8-----8-----8--------------------|--7--8-----------------|--8-----8-----8------------|--9-----------------------|--
G|-----------------------------------|--------------3--4-----|---------------------------|--------------3-----------|--
D|-----------------------------------|-----------------------|---------------------------|--------------------------|--
A|-----------------------------------|-----------------------|---------------------------|--------------------------|--
E|-----------------------------------|-----------------------|---------------------------|--------------------------|--

							http://www.guitartabcreator.com