OOOH BABY A TRIPLE Created By voiddweller000 on 2021-11-12
(/) Slide Up  (\) Slide Down  (h) Hammer On  (p) Pull Off  (b) Bend (r) Release (v) Vibrato

Stave 1:

Db|--------------------:|--------------------|--%--|---------------|--
C |--------------------:|--------------------|--%--|---------------|--
E |--------------------:|--------------------|--%--|---------------|--
B |--------------------:|--4--4--4--4--4--4--|--%--|----8-------2--|--
Gb|--------------------:|--2--2--2--2--2--2--|--%--|----8-------2--|--
B |--1--2--1--4--1--1--:|--------------------|--%--|---/8------\2--|--

Stave 2:

Db|--------------------------------------------------------------------------------------------------------------------------------|--
C |--------------------------------------------------------------------------------------------------------------------------------|--
E |--------------------------------------------------------------------------------------------------------------------------------|--
B |--------------------------------------------------------------------------------------------------------------------------------|--
Gb|--------------------------------------------------------------------------------------------3--3--3--3--3--3--3--3--3--3--3--3--|--
B |--1--1--1--1--1--1--1--1--1--1--2--2--1--1--1--1--1--1--1--1--1--1--1--4--4--4--4--4--4--4--------------------------------------|--

Stave 3:

Db|-----------------------------------------------------------------------------------------------|--
C |-----------------------------------------------------------------------------------------------|--
E |-----------------------------------------------------------------------------------------------|--
B |-----------------------------------------------------------------------------------------------|--
Gb|--------------------------------------------------------------------------------------2--3--2--|--
B |--1--1--1--1--2--2--2--2--3--3--3--3--2--2--2--2--1--1--1--1--2--2--2--2--3--3--3--3-----------|--

Stave 4:

Db|-----------------------------------------------------------------------------------------------|-----
C |-----------------------------------------------------------------------------------------------|-----
E |-----------------------------------------------------------------------------------------------|-----
B |--------------------------------------------------------------------------------------4--5--4--|--1--
Gb|-----2--2--2--3--3--3--3--4--4--4--4--3--3--3--3--2--2--2--2--3--3--3--3--4--4--4--4-----------|--1--
B |-----------------------------------------------------------------------------------------------|--1--

Stave 5:

Db|--------------------------------------------------------------------------------------------------|-----
C |--------------------------------------------------------------------------------------------------|-----
E |--------------------------------------------------------------------------------------------------|-----
B |--1-----------------------------------------------------------------------------------------------|-----
Gb|--1-----------------------------------------------------------------------------------------------|-----
B |--1--0--0--1--0--0--1--0--0--1--0--0--1--0--2--0--1--0--0--1--0--0--1--0--0--1--0--0--2--2--2--2--|-----

Stave 6:

Db|--------------------------------------------------------------------------------------------------|--
C |--------------------------------------------------------------------------------------------------|--
E |--------------------------------------------------------------------------------------------------|--
B |--1-----------------------------------------------------------------------------------------------|--
Gb|--1-----------------------------------------------------------------------------------------------|--
B |--1--0--0--1--0--0--1--0--0--1--0--0--1--0--2--0--1--0--0--1--0--0--1--0--6--5--4--3--4--3--2--1--|--

Stave 7:

Db|-----------------------------------------------------------------------|--
C |-----------------------------------------------------------------------|--
E |-----------------------------------------------------------------------|--
B |--1--1--------------------4--4--4--4--3--3--3--------------------------|--
Gb|--1--1--1--1--1--1--1--1--2--2--2--2--1--1--1--------------------------|--
B |--1--1--1--1--1--1--1--1-----------------------6--5--4--3--4--3--2--1--|--

Stave 8:

Db|--------------------|-----------------------|--------------------------|--------------------------|--
C |--------------------|-----------------------|--------------------------|--------------------------|--
E |--------------------|-----------------------|--------------------------|--------------------------|--
B |--------------------|-----------------------|--------------------------|--------------------------|--
Gb|--------------------|-----------------------|--------------------------|--------------------------|--
B |--1--1--1--1--------|--2--2--2--2-----------|--3--3--3--3--------------|--4--4--4--4--------------|--

							http://www.guitartabcreator.com 
Kootenai Jail Tab Created By finfinfin on 2021-11-12
(/) Slide Up  (\) Slide Down  (h) Hammer On  (p) Pull Off  (b) Bend (r) Release (v) Vibrato

Main Riff:

E|--------0--------0--------------------------------------------3--------0--
B|-----5--------5--------0--------0-----------1--------1--------------------
G|--5--------5--------------5--------5-----2--------2--------0--------0-----
D|--------------------5--------5--------3--------3--------------------------
A|--------------------------------------------------------3--------3--------
E|--------------------------------------------------------------------------

Bridge 1:

E|--------0--------0--------------------------------------------------------
B|-----3--------3-----------1--------1-----0--------0-----------1--------1--
G|--3--------3-----------2--------2-----------3--------3-----2--------2-----
D|--------------------3--------3--------3--------3--------3--------3--------
A|--------------------------------------------------------------------------
E|--------------------------------------------------------------------------

Bridge 2:

E|--------0-----------------0--------0--------0--------0-----------------0--------0--
B|-----0--------0-----------------------------------------------1--------------------
G|-----------------5-----0--------0--------0--------0--------0--------0--------0-----
D|--5--------5-----------------------------------------------------------------------
A|--------------------3--------3--------3--------3--------3--------3--------3--------
E|-----------------------------------------------------------------------------------

							http://www.guitartabcreator.com 
I'M ON DEEBO LICK Created By voiddweller000 on 2021-11-12
(/) Slide Up  (\) Slide Down  (h) Hammer On  (p) Pull Off  (b) Bend (r) Release (v) Vibrato

Stave 1:

Db|--------------5--------------5--------------------------------|--
C |--------------5--------------5--------------------------------|--
E |--------------------------------------------------------------|--
B |--3--3--3--3-----3--3--3--3-----3--3--3--3--4--4--4--3--3--3--|--
Gb|--3--3--3--3-----3--3--3--3-----3--3--3--3--4--4--4--3--3--3--|--
B |--3--3--3--3-----3--3--3--3-----3--3--3--3--4--4--4--3--3--3--|--

Stave 2:

Db|--------------------------------------------------------------------------------------|--
C |--------------------------------------------------------------------------------------|--
E |--------------------------------------------------------------------------------------|--
B |--2--2--3--3--2-----2--2--3--3--2-----2--2--3--3--2--2--3--3--6--6--5--5--2--2--3--3--|--
Gb|--2--2--3--3--2-----2--2--3--3--2-----2--2--3--3--2--2--3--3--6--6--5--5--2--2--3--3--|--
B |--2--2--3--3--2-----2--2--3--3--2-----2--2--3--3--2--2--3--3--6--6--5--5--2--2--3--3--|--

Stave 3:

Db|-----------------------------------------------------------------------------|--
C |-----------------------------------------------------------------------------|--
E |-----------------------------------------------------------------------------|--
B |-----------------------------------------------------------------------------|--
Gb|-----------------------------------------------------------------------------|--
B |--2--3--2--1--2--3--2--1--2--3--2--3--6--5--2--3-----------------------------|--

Stave 4:

Db|----------------------------------|-----------------------------|--
C |----------------------------------|-----------------------------|--
E |-----------------5--5--5--5----8--|-----------------5--5--5-----|--
B |--2-----3--2----------------------|--2-----3--2--------------0--|--
Gb|--2-----3--2-----3--3--3--3----6--|--2-----3--2-----3--3--3--0--|--
B |--2-----3--2----------------------|--2-----3--2--------------0--|--

Stave 5:

Db|--------------------------------------------------------------------------------------------------|--
C |--------------------------------------------------------------------------------------------------|--
E |--------------------------------------------------------------------------------------------------|--
B |--2--2--2--2--2--2--2--2--------------------------5--5--5-----------------------------4-----3-----|--
Gb|--2--2--2--2--2--2--2--2--------------------------3--3--3--3--3--3--3--3--------------2--2--1--1--|--
B |--2--2--2--2--2--2--2--2--3--3--3--3--3--3--3--3--------------------------1--1--1--1--------------|--

Stave 6:

Db|--------------|-----------------------------|:--%--:|-----------------------------|--
C |--------------|-----------------------------|:--%--:|-----------------------------|--
E |--------------|-----------------------------|:--%--:|-----------------------------|--
B |--------------|-----------------------------|:--%--:|-----------------------------|--
Gb|--------------|-----------------------------|:--%--:|-----------------------------|--
B |--2--3--2--5--|--0--0--0--0--0--0--0--0-----|:--%--:|--3--3--3--3--3--3--3--3--3--|--

Stave 7:

Db|--------------------------------------------|--
C |--------------------------------------------|--
E |--------------------------------------------|--
B |--2-----3--2-----0--2-----2--1--1--1--1-----|--
Gb|--2-----3--2-----0--2-----2--1--1--1--1-----|--
B |--2-----3--2-----0--2-----2--1--1--1--1-----|--

							http://www.guitartabcreator.com 
CHROMATIC RIFF Created By voiddweller000 on 2021-11-12
(/) Slide Up  (\) Slide Down  (h) Hammer On  (p) Pull Off  (b) Bend (r) Release (v) Vibrato

Stave 1:

Db|--------------:|--------------|--%--|--------------|--
C |--------------:|--------------|--%--|--------------|--
E |--------------:|--------------|--%--|--------------|--
B |--5--4--3--2--:|--------------|--%--|--------------|--
Gb|--5--4--3--2--:|--------------|--%--|--------------|--
B |--5--4--3--2--:|--3--4--2--4--|--%--|--3--4--2--1--|--

Stave 2:

Db|--------------|--------------------------------------------------|--
C |--------------|--------------------------------------------------|--
E |--------------|--------------------------------------------------|--
B |--4--5--5--8--|--4--4--4--4--5--5--5--5--5--5--5--5--8--7--8--7--|--
Gb|--4--5--3--6--|--4--4--4--4--5--5--5--5--3--3--3--3--6--5--6--5--|--
B |--4--5--------|--4--4--4--4--5--5--5--5--------------------------|--

Stave 3:

Db|-------------------------------------------------------------------------------------------|--
C |-------------------------------------------------------------------------------------------|--
E |-------------------------------------------------------------------------------------------|--
B |-------------------------------------------------------------------------------------------|--
Gb|-------------------------------------------------------------------------------------------|--
B |--5--4--5--4--4--5--4--4--5--4--4--5--4--5/8--5--4--5--4--4--5--4--4--5--4--4--3--3--3-----|--

Stave 4:

Db|--------------------------------------------------|--------------------------------------------------|--
C |--------------------------------------------------|--------------------------------------------------|--
E |--------------------------------------------------|--------------------------------------------------|--
B |--------------------------------------------------|--------------------------------------------------|--
Gb|--------------------------------------------------|--------------------------------------------------|--
B |--5--5--5--5--4--4--4--4--1--1--1--1--4--4--4--4--|--5--5--5--5--4--4--4--4--1--1--1--1--5--4--1--4--|--

Stave 5:

Db|--------------------------------------------------|--------------------------------------------------|--
C |--------------------------------------------------|--------------------------------------------------|--
E |--------------------------------------------------|--------------------------------------------------|--
B |--------------------------------------------------|--------------------------------------------------|--
Gb|--------------------------------------------------|--------------------------------------------------|--
B |--6--6--6--6--5--5--5--5--2--2--2--2--5--5--5--5--|--6--6--6--6--5--5--5--5--2--2--2--2--6--5--2--5--|--

Stave 6:

Db|-----------------------------------------------|--------------------------------------------------|--
C |-----------------------------------------------|--------------------------------------------------|--
E |-----------------------------------------------|--------------------------------------------------|--
B |-----------------------------------------------|--------------------------------------6--7--6-----|--
Gb|--1--1--1--1--1--1--1--1--1--1--1--1--1--1--2--|--1--1--1--1--1--1--1--1--4--4--4--4--4--5--4--0--|--
B |--1--1--1--1--1--1--1--1--1--1--1--1--1--2--2--|--1--1--1--1--1--1--1--1--4--4--4--4-----------0--|--

							http://www.guitartabcreator.com