me Created By JustTylerr1 on 2022-01-24
(/) Slide Up  (\) Slide Down  (h) Hammer On  (p) Pull Off  (b) Bend (r) Release (v) Vibrato

Capo Fret 7

Stave 1:

E|--2-----0--2-----------0--------------------0-----2-----0--2-----2--0--------2--0-----------2--0--2-----2-----0--2-----
B|--3--3--------3--0--3--0--3--0--2--0--2--3--2--3-----3--------3--------3--0--------3--2--3-----------3-----3--------0--
G|--2--------------0-----------0-----------------2--------------------------0-----------0--2--------------------------0--
D|--0--------------0-----------2-----------------0--------------------------0-----------2--0--------------------------0--
A|-----------------2-----------0--------------------------------------------2-----------0-----------------------------2--
E|-----------------3--------------------------------------------------------3-----------------------------------------3--

Stave 2:

E|--2--0--2--------2--0-------------0--------0--------0--------0--------------2-----0--2-----2--0-----------0-----------
B|-----------3--3--------3-------3--------3--------3--------3-----3--2--0-----3--3--------3--------3--0--3--0--3--0--2--
G|-----------1--2-----------2/4--------2--------0--------2-----------------2--2-----------------------0-----------0-----
D|-----------0--0-------------------------------------------------------------0-----------------------0-----------2-----
A|-----------2----------------------------------------------------------------------------------------2-----------0-----
E|-----------0----------------------------------------------------------------------------------------3-----------------

Stave 3:

E|-----------0--2--2-----0--2-----2--0--------2--0-----------2--0--2-----2-----0--2-----2--0--2--------2--0-------------
B|--0--2--3--2--3-----3--------3--------3--0--------3--2--3-----------3-----3--------0-----------3--3--------3-------3--
G|--------------2--------------------------0-----------0--2--------------------------0-----------1--2-----------2/4-----
D|--------------0--------------------------0-----------2--0--------------------------0-----------0--0-------------------
A|-----------------------------------------2-----------0-----------------------------2-----------2----------------------
E|-----------------------------------------3-----------------------------------------3-----------0----------------------

Stave 4:

E|--0--------0--------0--------0--------------2--2-----0--2-----------------------------
B|--------3--------3--------3-----3--2--0-----3-----3--------0--2--------------------1--
G|-----2--------0--------2-----------------2--2-----------------2--2--------------2-----
D|--------------------------------------------0-----------------2--2--------2--3--------
A|--------------------------------------------------------------0--0--0--4--------------
E|--------------------------------------------------------------------------------------

							http://www.guitartabcreator.com 
stinkfinger Created By The Fat Dog 21 on 2022-01-24
(/) Slide Up  (\) Slide Down  (h) Hammer On  (p) Pull Off  (b) Bend (r) Release (v) Vibrato

Stave 1:

E|-------------------------------------------------------------------------------------------------
B|-------------------------------------------------------------------------------------------------
G|-------------------------------------------8---7--------------------11---------------------------
D|---------------------------------------------6---5-4-------8---10-8----13-12---------4-----------
A|-6-5-----------------------------------5-6-----------5-6-9---9---------11-10-9-9-9-9-2-6---------
E|-4-3-2-2-2-2-2-2-2-2-2-2-2-2-2-2-2-2-3-------------------------------------------------4-3-3-3-3-

Stave 2:

E|--------------------------------------------------------------------------------------------------------------------------------------
B|-----------------------------------------------------------------------------------------------------------------------------15-16-19-
G|---------3---4/3-------13/12---------3---4/3-------12/11---------3---4/3-------13/12--------------------------------12-13-16----------
D|---------4-4-2/1---------------------4-4-2/1---------------------4-4-2/1-----------------------------------12-13-16-------------------
A|-3---------5-3/3-------11/10-3---------5-3/3-------10/9--3---------5-3/3-------11/10-10-x-x-13/12-10-11-14----------------------------
E|-3-2-2-2---------2-2-2-------3-2-2-2---------4-4-4-------3-2-2-2---------2-2-2-------8--x-x-11/10-------------------------------------

							http://www.guitartabcreator.com 
Starwars Created By GuitarLessonsWithTrent on 2022-01-24
(/) Slide Up  (\) Slide Down  (h) Hammer On  (p) Pull Off  (b) Bend (r) Release (v) Vibrato

Stave 1:

E|-----------|-----------3-----|-----------3-----|--------------|--
B|--------3--|--1--0--------3--|--1--0--------3--|--1--0--1-----|--
G|-----0-----|--------2--------|--------2--------|-----------2--|--
D|--0--------|-----------------|-----------------|--------------|--
A|-----------|-----------------|-----------------|--------------|--
E|-----------|-----------------|-----------------|--------------|--

Stave 2:

E|-----------|-----------------|-----------------|--------------|--
B|-----------|-----------8-----|-----------8-----|--------------|--
G|--------7--|--5--4--------7--|--5--4--------7--|--5--4--5--2--|--
D|-----5-----|--------5--------|--------5--------|--------------|--
A|--5--------|-----------------|-----------------|--------------|--
E|-----------|-----------------|-----------------|--------------|--

Stave 3:

E|------------|--------------------|--------------------|---------------|--------|--
B|------------|------------12------|------------12------|---------------|--------|--
G|--------11--|--9--8----------11--|--9--8----------11--|--9--8--9------|--------|--
D|-----9------|--------11----------|--------11----------|-----------11--|-----9--|--
A|--9---------|--------------------|--------------------|---------------|--9-----|--
E|------------|--------------------|--------------------|---------------|--------|--

							http://www.guitartabcreator.com 
Zero to Hero Created By sdesmond on 2022-01-24
(/) Slide Up  (\) Slide Down  (h) Hammer On  (p) Pull Off  (b) Bend (r) Release (v) Vibrato

Intro

F|--------------|--------------|--------------|--------------
C|--5--5--5--5--|--------------|--5--5--5--5--|--------------
G|--------------|--5--5--5--5--|--------------|--5--5--5--5--
D|--------------|--------------|--------------|--------------



F|--------------|--------------|--------------|--------------|--------------|--------------|--------------|--------------|--------------|--------------
C|--------------|--------------|--------------|--------------|--------------|--------------|--------------|--------------|--0--0--0--0--|--------------
G|--------------|--------------|--------2--2--|--3--3--------|--------------|--------------|--------2--2--|--3--3--4--4--|--------------|--------------
D|--3--3--3--3--|--3--3--3--3--|--3--3--------|--------1--2--|--3--3--3--3--|--3--3--3--3--|--3--3--------|--------------|--------------|--1--3--1--3--



F|--------------|--------------|--------------|--------------|--------------|--------------|--------------|-----------------|--------------|--------------
C|--0--0--0--0--|--------------|--0--0--0--0--|--------2-----|--------------|--------------|--------------|-----------------|--------2--5--|--------4--7--
G|--------------|--------------|--------------|--2--2--------|--0--2--3--4--|--5--5--------|--0--2--3--4--|--5--5-----------|--3-----------|--5-----------
D|--------------|--1--3--1--3--|--------------|--------------|--------------|--------3-----|--------------|--------3--------|--------------|--------------



F|--------------|--------------|--------------|--------------|--------------|--------------|--------------|--------------|--------------|--------------
C|--------------|--------------|--------2--5--|--------4--7--|--------------|--------------|--------------|--2--------2--|--------------|--2--------2--
G|--------0--0--|--1--1--2--2--|--3-----------|--5-----------|--------0--0--|--1--1--2--2--|--2--------2--|--------------|--2--------2--|--------------
D|--3--3--------|--------------|--------------|--------------|--3--3--------|--------------|--------------|--------------|--------------|--------------



F|--------------|--------------|--------------|--------------|--------------|--------------|--------------|--------------|--------------|--------------
C|--------------|--------------|--------------|--------------|--------------|--------------|--------------|--------------|--------------|--------------
G|--0--0--2--2--|--3--3--4--4--|--5--5--5--5--|--5--5--7--7--|--0--0--0--0--|--0--0--0--0--|--0--0--4--4--|--5--5--7--7--|--0--0--0--0--|--0--0--0--0--
D|--------------|--------------|--------------|--------------|--------------|--------------|--------------|--------------|--------------|--------------

Stave 6:

F|--------------|--------------|--------------|--------------|--------------|--------------|--------------|--------------|:--------------------|--------------:|--
C|--------------|--------------|--------------|--------------|--------------|--------------|--------------|--------4-----|:--------------------|--------------:|--
G|--0--0--4--4--|--5--5--6--6--|--7--7--7--7--|--------------|--7--7--7--7--|--------------|--7--7--7--7--|--4--4--------|:-----4--5--6--7--7--|--------------:|--
D|--------------|--------------|--------------|--3--5--3--5--|--------------|--3--5--3--5--|--------------|--------------|:--7-----------------|--5-----------:|--

Who put the glad in gladiator...                                              6x 

F|--|:--------------|--------------------:|--------------|--------------|:--------------:|--|:--------------|--------------:|--|:--------------------------:|--
C|--|:--------------|--------------------:|--------------|--------------|:--------------:|--|:--------------|--------------:|--|:--------------------0--2--:|--
G|--|:--0-----0-----|--0-----0-----------:|--3-----3-----|--------------|:--0--4--5--7--:|--|:--0--0--4--4--|--5--5--7--7--:|--|:--3-----3--2--0--3--------:|--
D|--|:-----0-----0--|-----0-----0--2--4--:|-----3-----3--|--0--2--3--4--|:--------------:|--|:--------------|--------------:|--|:-----0--------------------:|--



F|--------------------|--------------------------|:-----------------------:|--------------------------|--------------------------------|-------
C|--2-----2-----------|--------------------------|:--------0--1--2-----2--:|--------0--1--2--2--2--2--|--2/14--14--14--14--14--14--14--|-------
G|-----0-----0--4--4--|--------------0--0--1--1--|:--2--4-----------------:|--2--4--------------------|--------------------------------|-------
D|--------------------|--2--2--4--4--------------|:-----------------------:|--------------------------|--------------------------------|--5\0--

							http://www.guitartabcreator.com