SHIVA Created By CanoeOfPoo on 2021-06-19
(/) Slide Up  (\) Slide Down  (h) Hammer On  (p) Pull Off  (b) Bend (r) Release (v) Vibrato

Stave 1:

E|--------------------------|--------------------------:|------------------:|--------------------------------------------------------|--
B|--------------------------|--------------------------:|------------------:|--------------------------------------------------------|--
G|------------------10------|------------------12------:|--14--12--15--14--:|--14--12--15--14------12------10------9----------9--10--|--
D|--12------10--12------12--|--12------10--12------14--:|------------------:|------------------15------14------12-----10--12---------|--
A|------12------------------|------12------------------:|------------------:|--------------------------------------------------------|--
E|--------------------------|--------------------------:|------------------:|--------------------------------------------------------|--

Stave 2:

E|------------------|------------------|----------------------12--13--15--13------12--13--15--17--|-----------------------------------------------------------------|--
B|------------------|------------------|------13------15----------------------15------------------|-----------------------------------------------------------------|--
G|--14--12--15--14--|--14--12--15--14--|--14------14------15--------------------------------------|--------------------------10--9----------------------------------|--
D|------------------|------------------|----------------------------------------------------------|--12--10--12------10--12---------12--10--12----------------------|--
A|------------------|------------------|----------------------------------------------------------|--------------12-----------------------------12--------------12--|--
E|------------------|------------------|----------------------------------------------------------|-------------------------------------------------12--13--15------|--

Stave 3:

E|-------------------------------------------------|--
B|---------------------------------------------10--|--
G|--------------------------10--9------------------|--
D|--12--10--12------10--12---------12--10--12------|--
A|--------------12---------------------------------|--
E|-------------------------------------------------|--

							http://www.guitartabcreator.com 
Just the Two of Us Created By yidicaj790@rmomail.com on 2021-06-18
(/) Slide Up  (\) Slide Down  (h) Hammer On  (p) Pull Off  (b) Bend (r) Release (v) Vibrato

Capo 1

E|--7--3-----------------2--5--7--3/0--------------5-----3-----------------------------3--2--------0-----------12--
B|--------5--x--------4----------------0--x--------6-----3--6--5--------x--5-----4-----------------0--x--------12--
G|--------------4-----2----------------------0-----5--5--4-----------4-----------2--------------0--------0-----12--
D|--------------------4-------------------------------------------5--------------4--4------------------------------
A|--3--------------3--2-------------------------0--5-----------3--------------3--2---------------------------------
E|--------------------------x-----0----------------------3-----------------------------x-----0--------------0------



E|-----------------------------------------------0----------------------------------------------------------0-----0------------
B|-----------x-----------------x-----0-----0--3--------3/0--x-------------0--x----------------0-------------0--x--0---------8--
G|-----0--0-----0-----------0-----2-------------------------------2/0-----------2/0--2-----0-----2/0--------0-----0--7/8/9-----
D|--------------------4--4-----------------1--------0-------------------------------------------------2------------------------
A|--3--------------3--2------------------------------------------------3----------------2--------------------------------------
E|--------------------------------------0----------------------3------------------------------x----------0---------------------



E|-----3--3-----3-----2--2--3-----5--7--10/7/10--5--5-----0--7-----5/3--5--------3-----3-----------0-----------0-----
B|-----5--5--x--5-----4--4-----x-----------------6--6--8--------x----------------4--x--4-----------0--x--------0--x--
G|-----4--4-----4-----2--2-----------------------7--7-------------------------2-----------------0--------0-----------
D|-------------------------------------------------------------------------------------------------------------------
A|-----------------3--2-----------------6--------5--5-----3----------------2--------------2--------------------------
E|-----------------------------------0-------------------------------------------------------0--------------0--------



E|-----------------------------------------------------------------0--0-----------------------------------------------0--
B|--3/0-------------------x--------------3--x--0-----3/0--3--x--3--0--0---------------------x-------------------0--x--0--
G|-------2/3/2/0--2/0-----------------0--------------0----0-----0--0--0-----2/0-----2/0-----------------2/0-----0-----0--
D|---------------------2-----2----------------------------1-----1--0-----0---------------2-----2-------------2-----------
A|----------------3-------------3--2--------------2---------------------------------3-------------3--2-------------------
E|---------------------------------------------------0----------------------x------0---------------------------0--------0--



E|--7--5/3--5/3-----------------7-----7--10/7--10-----7--5--3--5/3-----------------3-----3-----------0-----------12--
B|---------------5--x--5-----4-----x---------------------6--3-------5--x--5-----4-----x--------------0--x--------12--
G|---------------------------2---------------------------7--4-------------------2-----------------0--------0-----12--
D|---------------------------4--------------------------------------------------4------------------------------------
A|----------3-------------3--2---------------------6-----5-----3-------------3--2-----------2------------------------
E|---------------------------------------0------------------3----------------------------------0--------------0------



E|--7------------------7--5-----5--------------5-----3-----------------3--1----------3-----------
B|-----10--8--x--------------x-----8--6--x--------x-----6--4--x--------------x--3/5--5--x--3-----
G|---------------9--------------------------7--------------------5--------------4----4-----2-----
D|------------------------------------------------------------------------------5----------3-----
A|------------------------------------------------------------------------------3----------------
E|--8---------------8--7--------6--------------5-----4--------------4--3-------------------1-----

							http://www.guitartabcreator.com