shred 2 Created By Cs2854900 on 2022-01-19
(/) Slide Up  (\) Slide Down  (h) Hammer On  (p) Pull Off  (b) Bend (r) Release (v) Vibrato

Stave 1:

E|-23-22-23-22-23-22-23-22-23-22-23-22-23----23-22-23-22-22-23-22-23-22-23-22-23-22-23-22-23-22-23-22-23----23-22-23-23-22-23-22-23-23-22-23-22-23-------22-
B|----------------------------------------22-------------------------------------------------------------22----------------------------------------22-23----
G|----------------------------------------------------------------------------------------------------------------------------------------------------------
D|----------------------------------------------------------------------------------------------------------------------------------------------------------
A|----------------------------------------------------------------------------------------------------------------------------------------------------------
E|----------------------------------------------------------------------------------------------------------------------------------------------------------

Stave 2:

E|-22-23----22-23-22-23-22-23-22-23-21-21-21-20-21-22-23-4-14-15-17-18-18-14-5-19-7-------12---10---------------------------23----22-23-21-22-23-22-23-
B|-------22-------------------------------------------------------------------------10-11----6----8-10-12-14-15-17-18----23----22----------------------
G|--------------------------------------------------------------------------------------------------------------------23-------------------------------
D|-----------------------------------------------------------------------------------------------------------------------------------------------------
A|-----------------------------------------------------------------------------------------------------------------------------------------------------
E|-----------------------------------------------------------------------------------------------------------------------------------------------------

Stave 3:

E|-23-21-16----7----12----------------------6-------9-------------20-19-17-2---------------1-----------------------------------------
B|----------11------------------16-13-8---4-------8---10-12-13-15----------------------------0---------------------------------------
G|---------------------14---------------------7----------------------------------------8-5-------------------------21-19----------18-
D|--------------------------------------4-------7----------------------------------------------0----------------23-------18----22----
A|---------------10-------15-16----------------------------------------------1-------9-----------0--------------------------20-------
E|-----------------------------------------------------------------------------1-2-5---------------1-5-16-20-23----------------------

							http://www.guitartabcreator.com 
the rumbling Created By JAmesss on 2022-01-19
(/) Slide Up  (\) Slide Down  (h) Hammer On  (p) Pull Off  (b) Bend (r) Release (v) Vibrato

Stave 1:

E|----------------------------------------------------------------------------------------------------------------------------------------------------
B|----------------------------------------------------------------------------------------------------------------------------------------------------
G|--8--8--8--8--8--10--10--10--10--12--12--12--12--------------8--10b13--12--12--13/15--12\10--10p8--10p8--10/12--10/12-----------------8--10b13--12--
D|----------------------------------------------------------------------------------------------------------------------------------------------------
A|--6--6--6--6--6--8---8---8---8---10--10--10--10-----------------------------------------------------------------------------------------------------
E|----------------------------------------------------------------------------------------------------------------------------------------------------
B|----------------------------------------------------------------------------------------------------------------------------------------------------

Stave 2:

E|------------------------------------------------------------------------------------------------------------------------------------------------------
B|------------------------------------------------------------------------------------------------------------------------------------------------------
G|--8--10b13--12--12--13--12--12--10--8--8--------------------8--10b13--12--12--12--13/15--12\10--10p8--10--10p8--10/12--10/12--------------------------
D|------------------------------------------------------------------------------------------------------------------------------------------------------
A|------------------------------------------------------------------------------------------------------------------------------------------------------
E|------------------------------------------------------------------------------------------------------------------------------------------------------
B|------------------------------------------------------------------------------------------------------------------------------------------------------

Stave 3:

E|-------------------------------------------------------------------------------------------------------------------------------------------------------
B|-------------------------------------------------------------------------------------------------------------------------------------------------------
G|--10p8--10--10--10--10--10--10--10--10/12--8/10--------------------------------------------------------------------------------------------------------
D|-------------------------------------------------------------------------------------------------------------4-----------------------------------------
A|----------------------------------------------------------------------------------------------------------------3--------------------------2--3--------
E|----------------------------------------------------------23\1--2--2--2-----2--2--2-----2--2--2--2--2--2--2--------2--2--2-----2--2--2--5--------4--1--
B|-------------------------------------------------------------------------------------------------------------------------------------------------------

Stave 4:

E|--------------------------------------------
B|--------------------------------------------
G|--------------------------------------------
D|--------------------------------------------
A|--------------------------2--3--------2-----
E|--2--2--2-----2--2--2--5--------4--1-----2--
B|--------------------------------------------

							http://www.guitartabcreator.com 
shred Created By Cs2854900 on 2022-01-19
(/) Slide Up  (\) Slide Down  (h) Hammer On  (p) Pull Off  (b) Bend (r) Release (v) Vibrato

Stave 1:

E|-22-23-22-23-22-23-22-23-22-23----23----21-------------16-------13-12----11------5-8---2---5-0-4---3-7-6-10-9-15----17-18-19-20-14-13-15-14-
B|-------------------------------22----22-------19----18----15----------------10-6---------2-------1---------------14-------------------------
G|-------------------------------------------21----19----------14-------12--------------------------------------------------------------------
D|-------------------------------------------------------------------------------------4------------------------------------------------------
A|--------------------------------------------------------------------------------------------------------------------------------------------
E|--------------------------------------------------------------------------------------------------------------------------------------------

Stave 2:

E|-20-17-19-21-22-23-21-14-11-9---6-----1-0-----------10-8-3-4----13-11-13----17-15----14----12-12----------16-16-18-19---5-5---7---2-
B|------------------------------7---4-2------------------------10----------19-------15----------------------------------8-----2---2---
G|------------------------------------------1-3-5--------------------------------------------------------15---------------------------
D|----------------------------------------------------------------------------------------12-------13-14------------------------------
A|--------------------------------------------------7---------------------------------------------------------------------------------
E|------------------------------------------------5-----------------------------------------------------------------------------------

							http://www.guitartabcreator.com