ff13 Created By natew13 on 2021-06-19
(/) Slide Up  (\) Slide Down  (h) Hammer On  (p) Pull Off  (b) Bend (r) Release (v) Vibrato

Stave 1:

E|------------------------------------------------------------------------------------------------------------------------------------
B|------------------------------------------------------8--8--6--5--------5---------------10--8-------------------8---------------10--
G|--9------------7--9-----------------------7--9--5--5--5-----------5--7-----4--------------------------7--9--10--5---------7--9------
D|--7--7--9--10-----9---5--5--7---7--9--10-----5--------7--------------5--------5--7----------------10------------------10------------
A|------------------12--------10---------------------------------------------------7--------------------------------------------------
E|---------------------------------------------------------------------------------10-------------------------------------------------

Stave 2:

E|-------------------------------------------------------8-----12--13--12------------------------------
B|--8--6-------------------------------8-----------6--8--------------------13--------------------------
G|--5-----9--7---------7--5--7--9--10--5--5--7--9-----5--5---------------------12--10--9--10--9--7--5--
D|--------6-----10--9--5-------------------------------------------------------------------------------
A|-----------------------------------------------------------------------------------------------------
E|-----------------------------------------------------------------------------------------------------

							http://www.guitartabcreator.com 
Asabk Ask Created By FadiTouma on 2021-06-19
(/) Slide Up  (\) Slide Down  (h) Hammer On  (p) Pull Off  (b) Bend (r) Release (v) Vibrato

Stave 1:

E|--------------------------------------------------------------------------------------------------------------------------------------------------------------------------------------------------------------------------------------------------------------------------------------------------------------------0--0-----0--1--0-----0--------------------0-----0-----0-----0-----------------------------------------------------------
B|-----------------3--------------------------3--------------------------------------------------------------------------------------------------------------------------------------------------------------------------------------------------------------------------------------------------0--1--0-----0--1--3--------------------3-----3--1--0--1--------------------------------0-----0--------------------------------1--1--1--3--1--
G|-----------1--2-----2--1--------------2--2--------------------------------------------------------------------------------------------------------------------------2--2--1--2-----2--2-----2--1-----2--1--1-----------2--1--1--------------------------------------------1-----------------------------2--------------------------------------------------7-----5-----4-----2-----1-----1-----1--2--2--2--1--1--1--1--5--------------------
D|--------2--------------------------3-----------------0--2-----2--2--2-----2--2--2--2--0--2--3--2--3--------0--2-----2--2--2-----2--2--2--2--0--2--3--2--3--------2--------------------------------3-----------------3--------------3--2--0--0--2--0--3--2--3--3--2--3--2--------3--6--3--2--------------------------------------------------------------------------------------------------------------------------------------------------
A|-----2--------------------------3-----------------------------------------------------------------------------------------------------------------------------------------------------------------------------------------------------------------------------------------------------------------------------------------------------------------------------------------------------------------------------------------------------------
E|--0--------------------------1--------------------------------------------------------------------------------------------------------------------------------------------------------------------------------------------------------------------------------------------------------------------------------------------------------------------------------------------------------------------------------------------------------------

							http://www.guitartabcreator.com