Wizom - Pixie Dust Created By WIZOM on 2021-11-22
(/) Slide Up  (\) Slide Down  (h) Hammer On  (p) Pull Off  (b) Bend (r) Release (v) Vibrato

Capo Fret 5

(W|WW) Whole  (H|HH) Half  (Q|QQ) Quarter  (E|EE) 8th (S|SS) 16th  (T|TT) 32nd (X|XX) 64th

Stave 1:
t:  E  E  E  E  E  E  E  E     E  E  E  E  E  E  E  E     E  E  E  E  E  E  E  E     E  E  E  E  E  E  E  E     
E|--1-----------------------|--0-----------------------|--0-----------------------|--0-----------0-----------|--
B|--3-----------------------|--1-----------------------|--0-----------------------|--1-----------1-----------|--
G|--2-----------------------|--0-----------------------|--1-----------------------|--2-----------0-----------|--
D|--0-----------------------|--2-----------------------|--0-----------------------|--2-----------2-----------|--
A|--------------------------|--0-----------------------|--2-----------------------|--0-----------0-----------|--
E|--------------------------|--------------------------|--0-----------------------|--------------------------|--

Stave 2:
t:  E  E  E  E  S S  E  E  E     E  E  E  E  S S  E  E  E     E  E  E  E  S S  E  E  E     E  E  E  E  E  E  E  E     
E|--1--------1--3/5--3--1--0--|--0-------------------------|--0-------------------------|--0-----------0-----------|--
B|--3-------------------------|--1--------1--3/5--3--1--0--|--0--------0--3/5--3--1--0--|--1-----------1-----------|--
G|--2-------------------------|--0-------------------------|--1-------------------------|--2-----------0-----------|--
D|--0-------------------------|--2-------------------------|--0-------------------------|--2-----------2-----------|--
A|----------------------------|--0-------------------------|--2-------------------------|--0-----------0-----------|--
E|----------------------------|----------------------------|--0-------------------------|--------------------------|--

							http://www.guitartabcreator.com 
Keith Created By StichMethod on 2021-11-22
(/) Slide Up  (\) Slide Down  (h) Hammer On  (p) Pull Off  (b) Bend (r) Release (v) Vibrato

C chords

E|--------------0-----------------------------8----------------------8-----------------12--
B|-----------1-----------------5-----------5----------------------8----------------13------
G|--------0-----------------5-----------5----------------------9---------------12----------
D|-----2-----------------5-----------5---------------------10--------------10--------------
A|--3-----------------3--------------------------------10----------------------------------
E|--------------------------------------------------8--------------------------------------

D Chords

E|-----------2-----------------2-----------------------------10-------------------------10--
B|--------3-----------------3-----------------7-----------7-------------------------10------
G|-----2-----------------2-----------------7-----------7------------------------11----------
D|--0-----------------4-----------------7-----------7-----------------------12--------------
A|-----------------5-----------------5----------------------------------12------------------
E|------------------------------------------------------------------10----------------------

G Chords

E|-----------------3--------------------3--------------7------------------7---------------------
B|--------------0--------------------3--------------8------------------8--------------------12--
G|-----------0--------------------4--------------7------------------7-------------------12------
D|--------0--------------------5--------------5------------------9------------------12----------
A|-----2--------------------5--------------------------------10-----------------10--------------
E|--3--------------------3----------------------------------------------------------------------

A Chords

E|--------------0--------------------5--------------------5------------------9--------------------9--
B|-----------2--------------------2--------------------5-----------------10-------------------10-----
G|--------2--------------------2--------------------6-----------------9--------------------9---------
D|-----2--------------------2--------------------7-----------------7-------------------11------------
A|--0--------------------4--------------------7------------------------------------12----------------
E|--------------------5--------------------5---------------------------------------------------------

E chords

E|-----------------0--------------4-----------------4-----------------------------12--
B|--------------0--------------5-----------------5-----------------9-----------9------
G|-----------1--------------4-----------------4-----------------9-----------9---------
D|--------2--------------2-----------------6-----------------9-----------9------------
A|-----2--------------------------------7-----------------7---------------------------
E|--0---------------------------------------------------------------------------------

							http://www.guitartabcreator.com 
Djuliano Created By Sejo on 2021-11-22
(/) Slide Up  (\) Slide Down  (h) Hammer On  (p) Pull Off  (b) Bend (r) Release (v) Vibrato

Stave 1:

G|--------------------------------------------------------------------------------------------------------------------------------------------
D|--------------------------------------------------------------------------------------------------------------------------------------------
A|--5-----------5-----------------------------5--5--3--5-----5--3--1-----0--3--5--5--3--5-----5--3--1-----0--1--0-----5--5--3--5-----5--3--0--
E|-----6--3--5-----6--3--5--6--5--------------------------------------------------------------------------------------------------------------

Stave 2:

G|--------------------------------------------------------------------------------------------------------------------------------------
D|--------------------------------------------------------------------------------------------------------------------------------------
A|--0--3--5--5--3--5-----5--3--0-----0--3--5--5--3--5-----1--0--------0--3--5--5--3--5-----1--0--------------------1--0-----5--5--3--5--
E|--------------------------------------------------------------3--------------------------------3--3--3--3--3--5-----------------------

Stave 3:

G|--------------------------------------------------------------------------------------------------------------------------------------
D|--------------------------------------------------------------------------------------------------------------------------------------
A|--1--0--------0--3--5--5--3--5-----1--0--------0--3--5--5--3--5-----1--0--------0--3--5--5--3--5-----1--0-----------------0--1--0-----
E|--------3--------------------------------3--------------------------------3--------------------------------3--3--3--3--3--------------

Stave 4:

G|--------------------------------------------------------------------------------------------------------------------------------
D|--------------------------------------------------------------------------------------------------------------------------------
A|--0--3--5--5--5--5--3--1--1--1--1--0-----------------------3--5--5--5--5--3--1--1--1--1--0--------------------------5--5--3--5--
E|--------------------------------------3--3--3--3--5--5--5-----------------------------------3--3--3--3--3--3--5-----------------

							http://www.guitartabcreator.com 
Fnafare Created By Gauntlet173 on 2021-11-21
(/) Slide Up  (\) Slide Down  (h) Hammer On  (p) Pull Off  (b) Bend (r) Release (v) Vibrato

Stave 1:

E|-----------1--|--1-----------|--------------|--1--1-----1--|-----------1--|--------------|--------------|--------------|--
B|--3--3--3-----|-----4--3-----|--x--x--x-----|--------------|--3--1--3-----|--3--1--------|--------------|--------------|--
G|--------------|--------------|--------------|--------------|--------------|--------3-----|--3-----------|--3-----3-----|--
D|--------------|--------------|--------------|--------------|--------------|--------------|--------------|--------------|--
A|--------------|--------------|--------------|--------------|--------------|--------------|--------------|--------------|--
E|--------------|--------------|--------------|--------------|--------------|--------------|--------------|--------------|--

Stave 2:

E|--------------|--------------|-----1--------|--------------|-----------1--|--1-----------|--1-----1-----|--1--1-----1--|--
B|--3--3--3-----|--3--3--3-----|--3--------1--|--3--1--1-----|--3--3--3-----|-----4--3-----|--------------|--------------|--
G|--------------|--------------|--------3-----|--------------|--------------|--------------|--------------|--------------|--
D|--------------|--------------|--------------|--------------|--------------|--------------|--------------|--------------|--
A|--------------|--------------|--------------|--------------|--------------|--------------|--------------|--------------|--
E|--------------|--------------|--------------|--------------|--------------|--------------|--------------|--------------|--

Stave 3:

E|--1--x--x--x--|--x--x--x--x--|--------1-----|--3-----------|--1-----------|--1-----------|--------------|--1--x--x--x--|--
B|--------------|--------------|--4-----------|--------4-----|--------------|--------------|--------------|--------------|--
G|--------------|--------------|--------------|--------------|--------------|--------------|--3-----------|--------------|--
D|--------------|--------------|--------------|--------------|--------------|--------------|--------------|--------------|--
A|--------------|--------------|--------------|--------------|--------------|--------------|--------------|--------------|--
E|--------------|--------------|--------------|--------------|--------------|--------------|--------------|--------------|--

							http://www.guitartabcreator.com