a Created By guitaraddison on 2021-06-20
(/) Slide Up  (\) Slide Down  (h) Hammer On  (p) Pull Off  (b) Bend (r) Release (v) Vibrato

Stave 1:

E|-----------------------------------------------1-----------------3--------3--------0-----------------------------------1-----------3--5--3--------1--3--------0--------------------------------1-----------3--5--3--------1--3--------0--------------------------
B|-----------2-----------------1--------------3-----3-----------------0--------------2-----------------1--------------3-----3-----------------0--------------2-----------------1--------------3-----3-----------------0--------------2-----------------1-----------
G|--------1-----1-----------2-----2--------2-----------2-----------------0--------1-----1-----------2-----2--------2-----------2-----------------0--------1-----1-----------2-----2--------2-----------2-----------------0--------1-----1-----------2-----2--------
D|-----0-----------0-----2-----------2--0-----------------------0--------------0-----------0-----2-----------2--0-----------------------0--------------0-----------0-----2-----------2--0-----------------------0--------------0-----------0-----2-----------2-----
A|--2-----------------0--------------------------------------2--------------2-----------------0--------------------------------------2--------------2-----------------0--------------------------------------2--------------2-----------------0--------------------
E|--------------------------------------------------------3-----------------------------------------------------------------------3-----------------------------------------------------------------------3--------------------------------------------------------

							http://www.guitartabcreator.com 
rECKLESS Created By Grandmaster Music on 2021-06-20
(/) Slide Up  (\) Slide Down  (h) Hammer On  (p) Pull Off  (b) Bend (r) Release (v) Vibrato

Stave 1:

E|--------------------------------------------------------------------------------------------------
B|-----------------------------------------------------------------8--8--6--------------8--6--------
G|--------------------------5--------5-----7--8--7--7--8--7--8--8-----------7--5--------------8--4--
D|--6--5--6--5--5--6--5--8-----8--8-----8-----------------------------------------8--8--------------
A|--------------------------------------------------------------------------------------------------
E|--------------------------------------------------------------------------------------------------

Stave 2:

E|---------------------------------------------------------------------------------------------
B|-----6--8--9-----9--8--6--------------6--8--8--8--6-----------------6--8--9-----9--11--8--6--
G|--8-----------5-----------7-----7--8-----------------8--5-----8--8-----------5---------------
D|---------------------------------------------------------------------------------------------
A|---------------------------------------------------------------------------------------------
E|---------------------------------------------------------------------------------------------

Stave 3:

E|---------------------------------------------------------------------------------------------------------------------------------
B|--------6-----8--8--8--6--8--9-----8--8--9--11--13---------------------------------11------8-------------8--9--9-----------6-----
G|--8--8-----8------------------------------------------------10-------------10--12------10---------8--10-----------7-----8-----8--
D|----------------------------------------------------13--13------12-----13---------------------10---------------------8-----------
A|---------------------------------------------------------------------------------------------------------------------------------
E|---------------------------------------------------------------------------------------------------------------------------------

							http://www.guitartabcreator.com 
Alanis Morisette - Hand in Pocket BASS TAB Created By RichardA on 2021-06-20
(/) Slide Up  (\) Slide Down  (h) Hammer On  (p) Pull Off  (b) Bend (r) Release (v) Vibrato

(W|WW) Whole  (H|HH) Half  (Q|QQ) Quarter  (E|EE) 8th (S|SS) 16th  (T|TT) 32nd (X|XX) 64th

Intro: 0.31
t:  W  W  W  W  W WW W     W  W  W     
G|----------------------|-----------|--
D|--3-------------------|-----5--3--|--
A|-----0--2--3----------|-----------|--
E|--------------3/10\3--|--3--------|--

Verse (simple)
t:  H  H  H  H  H  H  H  H     H  H  H  H  H  H  H     
G|--------------------------|-----------------------|--
D|--------------------------|-----------------------|--
A|--------------------------|--------------------5--|--
E|--3-----3--3--3--3--3--3--|--3-----3--3--3--3-----|--

Chorus 1
t:  H  H  H  H  H  H  H  H     H  H  H  H  H  H  H  H     H  H  H  H  H  H  H     
G|--------------------------|--------------------------|-----------------------|--
D|--------------------------|--------------------------|-----------------------|--
A|--------------------------|--3--3--3--3--3--3--3--3--|-----------------------|--
E|--1--1--1--1--1--1--1--1--|--------------------------|--3-----3--3--3--3--3--|--

Chorus 2
t:  H  H  H  H  H  H  H  H     H  H  H  H  H  H  H  H     H  H  H  H  H  H  H     
G|--------------------------|--------------------------|-----------------------|--
D|--------------------------|--------------------------|-----------------------|--
A|--------------------------|--3--3--3--3--5--5--5--5--|-----------------------|--
E|--1--1--1--1--1--1--1--1--|--------------------------|--3-----3--3--3--3--3--|--

Verse 1
t:  H  H  H  H  H  H  H  H     H  H  H  H  H  H  H  H     W  W  W  W     
G|--------------------------|--------------------------|--------------|--
D|--------------------------|--------------------------|--------------|--
A|--------5--5--------------|--------5--5--------------|-----5--------|--
E|--3-----------3-----------|--3-----------3-----------|--3-----3-----|--

Verse 1 (alternate)
t:  H  H  H  H  H  H  H  H     W  H  H  H  H  H  H     
G|--------------------------|-----------------------|--
D|--------------------------|-----------------------|--
A|--------5--5--------------|-----------------5-----|--
E|--3-----------3-----------|--0--1--1--3--3-----3--|--

							http://www.guitartabcreator.com 
Alchemy 140bpm Created By Asherror on 2021-06-20
(/) Slide Up  (\) Slide Down  (h) Hammer On  (p) Pull Off  (b) Bend (r) Release (v) Vibrato

 Verse Riff A

D|---------------------------------------------------------------------------
A|------10------10-------------10-------------10------10-------------10------
F|--10------10------10-----10------10-----10------10------10-----10------10--
C|---------------------------------------------------------------------------
G|---------------------------------------------------------------------------
C|---------------------------------------------------------------------------

Verse Riff B

D|-------------------------------------------------------------------------------------------------------
A|-------------------------------------------------------------------------------------------------------
F|-------0h2--3--2--0--2----------0h2--5--3--2-------0h2--3--2--0--2-------0h2--5--3--2--3--5--7--9--10--
C|--0h3----------------------0h3----------------0h3-------------------0h3--------------------------------
G|-------------------------------------------------------------------------------------------------------
C|-------------------------------------------------------------------------------------------------------

Verse Riff C

D|-------------------------------------------------
A|-------------------------------------------------
F|--10--9--7--5--5--7--7-----10--9--7--5--5--7--7--
C|-------------------------------------------------
G|-------------------------------------------------
C|-------------------------------------------------

 Verse Riff B

D|-------------------------------------------------------------------------------------------------------------
A|-------------------------------------------------------------------------------------------------------------
F|-------0h2--3--2--0--2----------0h2--5--3--2----------0h2--3--2--0--2----------0h2--5--3--2--3--5--7--9--10--
C|--0h3----------------------0h3-------------------0h3----------------------0h3--------------------------------
G|-------------------------------------------------------------------------------------------------------------
C|-------------------------------------------------------------------------------------------------------------

Verse Riff A

D|---------------------------------------------------------------------------
A|------10------10-------------10-------------10------10-------------10------
F|--10------10------10-----10------10-----10------10------10-----10------10--
C|---------------------------------------------------------------------------
G|---------------------------------------------------------------------------
C|---------------------------------------------------------------------------

Pre-Chorus riff x3

D|---------------------------------------
A|---------------------------------------
F|---------------------------------------
C|--3--0--0--3--0--0--5-7--0--3--0--3/5--
G|--3--0--0--3--0--0--5-7--0--3--0--3-5--
C|-----0--0--3--0--0--5/7--0--3--0--3-5--

Pre chorus riff last repeat

D|---------------------------------------------
A|---------------------------------------------
F|---------------------------------------------
C|--3--0--0--3--0--0--5-7--0--3--0--3-5--5--5--
G|--3--0--0--3--0--0--5-7--0--3--0--3-5--5--5--
C|--3--0--0--3--0--0--5/7--0--3--0--3/5--5--5--

Verse Riff B

D|--
A|--
F|--
C|--
G|--
C|--

Verse Riff C

D|--
A|--
F|--
C|--
G|--
C|--

Verse Riff B

D|--
A|--
F|--
C|--
G|--
C|--

Verse Riff A

D|--
A|--
F|--
C|--
G|--
C|--

Pre-Chorus

D|--
A|--
F|--
C|--
G|--
C|--

Chorus Riff A x2 (hold F notes)

D|--------------------------------------------------
A|--------------------------------------------------
F|--------------2--------5--------------------------
C|--3--3--3--3--3--3--3--3--3--3--3--3--3--3--3--3--
G|--3--3--3--3--3--3--3--3--3--3--3--3--3--3--3--3--
C|--3--3--3--3--3--3--3--3--3--3--3--3--3--3--3--3--

Chorus Riff B (for tail leading into bridge I just omit the notes on the F string for the last repeat of Riff B)

D|--------------------------------------------------------------------------------------------------
A|--------------------------------------------------------------------------------------------------
F|--------------2--------3--------------2--------------------------2--------3-----------5-----------
C|--0--0--0--0--0--0--0--0--0--0--0--0--0--0--3--0--3--0--0--0--0--0--0--0--0--0--0--0--0--0--0--0--
G|--0--0--0--0--0--0--0--0--0--0--0--0--0--0--3--0--3--0--0--0--0--0--0--0--0--0--0--0--0--0--0--0--
C|--0--0--0--0--0--0--0--0--0--0--0--0--0--0--3--0--3--0--0--0--0--0--0--0--0--0--0--0--0--0--0--0--

Bridging Riff (Key change to D)

D|--------------------------------------------------------------------------------------------------
A|--------------------------------------------------------------------------------------------------
F|--------------4--------4--------------4--------------------------4--------4-----------4-----------
C|--2--2--2--2--2--2--2--2--2--2--2--2--2--2--2--2--2--2--2--2--2--2--2--2--2--2--2--2--2--2--2--2--
G|--2--2--2--2--2--2--2--2--2--2--2--2--2--2--2--2--2--2--2--2--2--2--2--2--2--2--2--2--2--2--2--2--
C|--2--2--2--2--2--2--2--2--2--2--2--2--2--2--2--2--2--2--2--2--2--2--2--2--2--2--2--2--2--2--2--2--



D|-----------------------
A|-----------------------
F|-----------8--------8--
C|--9--9--9--9--9--9--9--
G|--6--6--6--6--6--6--6--
C|--6--6--6--6--6--6--6--

Repeat twice, third repeat I like to switch to the Em, G same pattern and length

D|--------------------------
A|--------------------------
F|-----------5--------5--9--
C|--6--6--6--6--6--6--6--7--
G|--3--3--3--3--3--3--3--7--
C|--3--3--3--3--3--3--3--7--

							http://www.guitartabcreator.com 
Pretty Please - Friday Night Funkin' VS Ex-Gf Ayana Mod Created By xXxGodseyxXx on 2021-06-19
(/) Slide Up  (\) Slide Down  (h) Hammer On  (p) Pull Off  (b) Bend (r) Release (v) Vibrato

Stave 1:

E|------------------------
B|-10---13---10-13---10---
G|------------------------
D|------------------------
A|------------------------
E|------------------------

Stave 2:

E|--------------------
B|--------------------
G|-------------9------
D|-12-10---------12---
A|-------12-10--------
E|--------------------

Stave 3:

E|------------------------12---
B|-10---13---10-10---13--------
G|-----------------------------
D|-----------------------------
A|-----------------------------
E|-----------------------------

Stave 4:

E|----------------------------
B|----------------------------
G|------------9---------------
D|-12-10-12-----12-10---------
A|--------------------10-12---
E|----------------------------

Stave 5:

E|-10-13-12--------------------12---
B|----------13---13-10-13---13------
G|----------------------------------
D|----------------------------------
A|----------------------------------
E|----------------------------------

Stave 6:

E|------------------------------
B|------------------------------
G|-----------------9------------
D|---------10---12---12-10------
A|-10-12-------------------12---
E|------------------------------

Stave 7:

E|------------------------12------
B|-10-13-13-10-10-13---10----10---
G|--------------------------------
D|--------------------------------
A|--------------------------------
E|--------------------------------

Stave 8:

E|-----------------------------------
B|-----------------------------------
G|-------9---9---12-9---------9------
D|-10-12--------------12---12---12---
A|-----------------------------------
E|-----------------------------------

Stave 9:

E|-----------10-12-------10-12---
B|-10---13---------10-10---------
G|-------------------------------
D|-------------------------------
A|-------------------------------
E|-------------------------------

Stave 10:

E|-------------------------
B|---------10--------------
G|-9----12----12-----------
D|---12------------10-12---
A|-------------------------
E|-------------------------

Stave 11:

E|-------------------------
B|-10---13-10-10-13---10---
G|-------------------------
D|-------------------------
A|-------------------------
E|-------------------------

Stave 12:

E|-10-13-12------------------------10---12-
B|----------13---13-10-13-13-13-13---------
G|-----------------------------------------
D|-----------------------------------------
A|-----------------------------------------
E|-----------------------------------------

Stave 13:

E|------------------10-------------
B|----------10-13--------13---10---
G|-------12------------------------
D|-10-12---------------------------
A|---------------------------------
E|---------------------------------

Stave 14:

E|----------------------12----10h12-10h12----10h12-10h12-10h12-10h12------
B|-10-13-13-10-10-13-10----10-------------13-------------------------10---
G|------------------------------------------------------------------------
D|------------------------------------------------------------------------
A|------------------------------------------------------------------------
E|------------------------------------------------------------------------

Stave 15:

E|-------------------------------------------
B|--------------------------10---------------
G|-------------------9---12----12-9------9---
D|-12h14-12h14-10-12----------------12-------
A|-------------------------------------------
E|-------------------------------------------

Stave 16:

E|-10h12-10h12------10h12----12-----------
B|-------------10---------10------10-13---
G|----------------------------------------
D|----------------------------------------
A|----------------------------------------
E|----------------------------------------

Stave 17:

E|--------------------------------------
B|------------------------------13------
G|-------------12-14------12-14----14---
D|-12h14-12h14-------14-----------------
A|--------------------------------------
E|--------------------------------------

Stave 18:

E|-10h12-10h12---------10h12-10h12---------12------
B|-------------10-10---------------10-10------13---
G|-------------------------------------------------
D|-------------------------------------------------
A|-------------------------------------------------
E|-------------------------------------------------

Stave 19:

E|------------------10----------------------
B|----------10-13------10-----------10------
G|-------12---------------12---9-12-------9-
D|-10-12-------------------------------12---
A|------------------------------------------
E|------------------------------------------

Stave 20:

E|-10---
B|------
G|------
D|------
A|------
E|------

Stave 21:

E|---------------------------------------------------
B|-10-10-10-10-10-10-10-10-10-10-10-10-10-10-10-10---
G|---------------------------------------------------
D|---------------------------------------------------
A|---------------------------------------------------
E|---------------------------------------------------

Stave 22:

E|-------------12-12-12-12-12-12-12-12---------------
B|-13-13-13-13-------------------------10-10-10-10---
G|---------------------------------------------------
D|---------------------------------------------------
A|---------------------------------------------------
E|---------------------------------------------------

Stave 23:

E|---------------------------------------------------
B|-10-10-10-10-13-13-13-13-13-13-13-13-10-10-10-10---
G|---------------------------------------------------
D|---------------------------------------------------
A|---------------------------------------------------
E|---------------------------------------------------

Stave 24:

E|-10-10-10-10-------------10-10-10-10---------------
B|-------------10-10-10-10-------------10-10-13-13---
G|---------------------------------------------------
D|---------------------------------------------------
A|---------------------------------------------------
E|---------------------------------------------------

Stave 25:

E|--------------------------------------------------------------------------------------------------------------------------10-10-10-10-
B|-10-10-10-10-------------------------------10-10-10-----------------------------------13-13-13-13-10-10-10-10-13-13-13-13-------------
G|-------------12-12-12-12-9-9-9-9-------9-9----------9-9-12-9-------------9-9-12-12-12-------------------------------------------------
D|---------------------------------12-12-----------------------12-12-12-12--------------------------------------------------------------
A|--------------------------------------------------------------------------------------------------------------------------------------
E|--------------------------------------------------------------------------------------------------------------------------------------

Stave 26:

E|------------------------------------10--------
B|-13-13-10----10-10------------10-13------13---
G|----------12-------12-9-12-12-----------------
D|----------------------------------------------
A|----------------------------------------------
E|----------------------------------------------

Stave 27:

E|-----------10h12-10h12-------------------------------------12-12-12-12-12-12-----------
B|-10---10-----------------10---10---10-10-10-10-13----13----------------------10---10---
G|--------------------------------------------------12----12-----------------------------
D|---------------------------------------------------------------------------------------
A|---------------------------------------------------------------------------------------
E|---------------------------------------------------------------------------------------

Stave 28:

E|---------------------------------------------
B|-10-10-10-10-13----13----13---13---10---10---
G|----------------12----12---------------------
D|---------------------------------------------
A|---------------------------------------------
E|---------------------------------------------

Stave 29:

E|-10h12-10h12-------------10h12-10h12----------------10h12--------------10h12---------10h12---
B|---------------10---10-----------------10---13--------------10-13-10-----------10-10---------
G|-----------------------------------------------12--------------------------------------------
D|---------------------------------------------------------------------------------------------
A|---------------------------------------------------------------------------------------------
E|---------------------------------------------------------------------------------------------

Stave 30:

E|--------------------------------------------
B|------10----10-10------10----10-------------
G|-9-12----12-------12-9----12----9-9-12------
D|---------------------------------------12---
A|--------------------------------------------
E|--------------------------------------------

Stave 31:

E|---------------------------------------------
B|-13-10-13-10-13-10-13-10-13-10-13-10-10-10---
G|---------------------------------------------
D|---------------------------------------------
A|---------------------------------------------
E|---------------------------------------------

Stave 32:

E|----------------------------------------------
B|----------------10-10----13-13-10--------10---
G|----------------------12----------9-9-12------
D|-10----10-12-12-------------------------------
A|----12----------------------------------------
E|----------------------------------------------

Stave 33:

E|---------------------------------------------------
B|-13-10-13-10-13-10-13-10-13-10-13-10-13-10-10-13---
G|---------------------------------------------------
D|---------------------------------------------------
A|---------------------------------------------------
E|---------------------------------------------------

Stave 34:

E|---------------------------------------------------------------------------------------------
B|---------------------------------------------------------------------------------------------
G|-------------------------------------------------------------9-9-9-9----------------9----9---
D|-12-10-12-10-------------12-10-12-10----------10-10-10-10-12------------------10-12---12-----
A|-------------12-10-12-10-------------12-10-12------------------------10-10-12----------------
E|---------------------------------------------------------------------------------------------

Stave 35:

E|----------------------------
B|-13-10-10-12-10-10-13-10-10\
G|----------------------------
D|----------------------------
A|----------------------------
E|----------------------------

Stave 36:

E|-----------------------------------------------------------------------
B|-----------------------------------------------------------------------
G|-9---------------------------------------------------------------------
D|---12---12-10---10-------------------------10-12-10------10------------
A|-------------------12---12-10---10---10-12----------10------12-10-12---
E|-----------------------------------------------------------------------

							http://www.guitartabcreator.com