war metl Created By voiddweller000 on 2021-11-13
(/) Slide Up  (\) Slide Down  (h) Hammer On  (p) Pull Off  (b) Bend (r) Release (v) Vibrato

Stave 1:

Db|-----------------------------------------:|-----------------------------------------------:|--
C |-----------------------------------------:|-----------------------------------------------:|--
E |-----------------------------------------:|-----------------------------------------------:|--
B |-----------------------------------3--4--:|--4--4--4--4--4--4--4--4--4--4--4--4--6--4--4--:|--
Gb|-----------------------------------3--4--:|--4--4--4--4--4--4--4--4--4--4--4--4--6--5--4--:|--
B |--6--5--4--6--5--4--6--5--4--6--5--3--4--:|--4--4--4--4--4--4--4--4--4--4--4--4--6--5--4--:|--

Stave 2:

Db|-----------------------------------------------------:|--
C |-----------------------------------------------------:|--
E |-----------------------------------------------------:|--
B |-----------------------------------------------------:|--
Gb|-----------------------------------------------------:|--
B |--3--3--3--3--7--6--4--6--3--3--3--3--7--6--4--4-----:|--

Stave 3:

Db|-----------------------------------------------------------------------------------:|-----
C |-----------------------------------------------------------------------------------:|-----
E |--------------------------------------9--9--9--9--9--9--9--10--10--10--10--10--10--:|-----
B |-----------------------------------------------------------------------------------:|-----
Gb|--------------------------------------7--7--7--7--7--7--7--8---8---8---8---8---8---:|-----
B |--3--3--3--3--3--3--3--3--3--3--3--3-----------------------------------------------:|-----

							http://www.guitartabcreator.com 
N3W SH1T Created By voiddweller000 on 2021-11-13
(/) Slide Up  (\) Slide Down  (h) Hammer On  (p) Pull Off  (b) Bend (r) Release (v) Vibrato

Stave 1:

Db|--------------------------------------------------------------------|--------------------------------------------------------------------|--------------------|--
C |--------------------------------------------------------------------|--------------------------------------------------------------------|--------------------|--
E |--------------------------------------------------------------------|--------------------------------------------------------------------|--------------------|--
B |--------------------------------------------------------7--8--7-----|--------------------------------------------------------------------|--------------------|--
Gb|--------------------------------------------------------5--6--5-----|--------------------------------------------------------------------|--------------------|--
B |--5--0--0--0--0--0--0--0--0--0--0--0--0--5--0--0--0--0-----------0--|--5--0--0--0--0--0--0--0--0--0--0--0--0--5--0--0--0--0--4-----4-----|--5--4--7--4--5--4--|--

Stave 2:

Db|--------------------------------------------------:|-----------------------------------------------------|--
C |--------------------------------------------------:|-----------------------------------------------------|--
E |--------------------------------------------------:|-----------------------------------------------------|--
B |--------------------------------------------------:|-----------------------------------------------------|--
Gb|--------------------------------------------------:|-----------------------------------------------------|--
B |-----5--5--5--4--4--4--4--7--7--7--7--4--4--4--4--:|--5--5--5--5--4--4--4--4--3--3--3--3--3--3--3--3-----|--

Stave 3:

Db|--------------------------------------------------:|-------------------------------------------------------------|--
C |--------------------------------------------------:|-------------------------------------------------------------|--
E |--------------------------------------------------:|-------------------------------------------------------------|--
B |--------------------------------------------------:|-------------------------------------------------------------|--
Gb|--------------------------------------------------:|-------------------------------------------------------------|--
B |--8--8--8--8--7--7--7--7--4--4--4--4--5--5--5--5--:|--8--8--8--8--7--7--7--7--11--11--10--10--11--11--10--10-----|--

Stave 4:

Db|--------------------------------------|-----------------------------------------------------|-----------------------------|--
C |--------------------------------------|-----------------------------------------------------|-----------------------------|--
E |--------------------------------------|-----------------------------------------------------|-----------------------------|--
B |-----------------------6--5--5--5--5--|--------------------------6--5--5--5-----------------|-----------------------------|--
Gb|-----------------------4--3--3--3--3--|--------------------------4--3--3--3-----------------|-----------------------------|--
B |-----4--4--4--4--4--4-----------------|--4--4--4--4--4--4--4--4--------------5--5--5--5--5--|--------------5--5--4--4-----|--

Stave 5:

Db|-----------------------------------------------------------------------------------:|--
C |-----------------------------------------------------------------------------------:|--
E |-----------------------------------------------------------------------------------:|--
B |-----------------------------------------------------------------------------------:|--
Gb|-----------------------------------------------------------------------------------:|--
B |--4--0--0--0--0--0--0--4--0--0--4--0--0--5--0--0--0--0--0--1--0--0--5--4--3--4--4--:|--

							http://www.guitartabcreator.com 
slower Created By voiddweller000 on 2021-11-13
(/) Slide Up  (\) Slide Down  (h) Hammer On  (p) Pull Off  (b) Bend (r) Release (v) Vibrato

Stave 1:

Db|-----------------------------------------------------|--------------------------------------------------------|--
C |-----------------------------------------------------|--------------------------------------------------------|--
E |-----------------------------------------------------|--------------------------------------------------------|--
B |-----------------------------------------------------|--------------------------------------------------------|--
Gb|-----------------------------------------------------|--------------------------------------------------------|--
B |--13\---0--0--0--1--0--0--0--0--0--0--0--1--0--0--0--|--13\---0--0--0--1--0--0--0--0--0--0--0--3--3--4--4-----|--

Stave 2:

Db|--------------------------------------------------|-----
C |--------------------------------------------------|-----
E |--------------------------------------------------|-----
B |--------------------------------------------------|-----
Gb|--------------------------------------------------|-----
B |--1--1--1--1--1--1--1--3--4--4--4--4--4--4--4--4--|-----

Stave 3:

Db|-----------------------------------------------|-----------------------------------------------|--
C |-----------------------------------------------|-----------------------------------------------|--
E |-----------------------------------------------|-----------------------------------------------|--
B |-----------------------------------------------|-----------------------------------------------|--
Gb|--------------------------2--3--4--3--2--3--2--|--------------------------1--2--3--2--1--2--1--|--
B |--1--1--1--1--2--2--2--2-----------------------|--1--1--1--1--2--2--2--2-----------------------|--

Stave 4:

Db|--------------------------------------------------------------------------:|-----------------------|--|--------------------------
C |--------------------------------------------------------------------------:|-----------------------|--|--------------------------
E |--------------------------------------------------------------------------:|-----------------------|--|--------------------------
B |--1-----------------------------------------------------------------------:|-----------------------|--|--------------------------
Gb|--1--1--1--1--1--1--1--2--1--1--1--1--1--1--1--2--4--4--4--4--4--4--4--4--:|--2--3--4--3--2--3--2--|--|--1--2--3--2--1--2--1-----
B |--1--1--1--1--1--1--1--2--1--1--1--1--1--1--1--2--4--4--4--4--4--4--4--4--:|-----------------------|--|--------------------------

Stave 5:

Db|--------------------------------------------------|--------------------------------------------------|--
C |--------------------------------------------------|--------------------------------------------------|--
E |--------------------------------------------------|--------------------------------------------------|--
B |--1-----------------------------------------------|--------------------------------------------------|--
Gb|--1-----------------------------------------------|--------------------------------------------------|--
B |--1--2--3--2--1--2--3--2--1--2--3--2--5--4--5--4--|--1--2--3--2--1--2--3--2--1--2--3--2--4--4--3--3--|--

Stave 6:

Db|--------------------------------------------------------------------------------------------------|--
C |--------------------------------------------------------------------------------------------------|--
E |--------------------------------------------------------------------------------------------------|--
B |--------------------------------------------------------------------------------------------------|--
Gb|--------------------------------------------------4--4--4--4--5--5--5--5--6--6--6--6--6--7--7--7--|--
B |--5--4--5--4--5--4--5--4--6--5--6--5--6--5--6--5--------------------------------------------------|--

Stave 7:

Db|--------------------------------------------------------------------------------------------------|--
C |--------------------------------------------------------------------------------------------------|--
E |--------------------------------------------------------------------------------------------------|--
B |--------------------------------------------------------------------------------------------------|--
Gb|--------------------------------------------------5--5--5--5--6--6--6--6--7--7--7--7--8--8--8--8--|--
B |--6--5--6--5--6--5--6--5--7--6--7--6--7--6--7--6--------------------------------------------------|--

Stave 8:

Db|-----------------------------------------------------------------------------------------------|-----
C |-----------------------------------------------------------------------------------------------|-----
E |-----------------------------------------------------------------------------------------------|-----
B |-----------------------------------------------------------------------------------------------|--9--
Gb|-----------------------------------------------6--6--6--6--7--7--7--7--8--8--8--8--9--9--9--9--|--7--
B |--7--6--7--6--7--6--7--8--7--8--7--8--7--8--7--------------------------------------------------|-----

Stave 9:

Db|--------------------------------------------|-----------------------------------------------------|--
C |--------------------------------------------|-----------------------------------------------------|--
E |--------------------------------------------|-----------------------------------------------------|--
B |--2-----------------------------------------|--2--------------------------------------------------|--
Gb|--2-----------------------------------------|--2--------------------------------------2--3--2--0--|--
B |--2--2--2--2--3--2--3--4--4--4--3--3--3--3--|--2--2--2--2--3--2--3--4--4--4--4--3--3--------------|--

Stave 10:

Db|-----------------------------------------------|--------------------------------------
C |-----------------------------------------------|--------------------------------------
E |-----------------------------------------------|--------------------------------------
B |--1--------------------------------------------|--1-----------------------------------
Gb|--1--------------------------------------------|--1-----------------------------------
B |--1--1--1--1--2--1--2--3--3--3--2--2--2--2--2--|--1--1--1--1--2--1--2--3--3--3--3/14--

Stave 11:

Db|-----------------------------:|-----------------|--
C |-----------------------------:|-----------------|--
E |-----------------------------:|-----------------|--
B |-----------------------------:|-----------------|--
Gb|-----------------------------:|-----------------|--
B |--13\---0--0--1--0--0--0--0--:|--2--2--2--2-----|--

Stave 12:

Db|-----------------:|--|--|--|----------------------------:|-----------
C |-----------------:|--|--|--|----------------------------:|-----------
E |-----------------:|--|--|--|--14-----14--15--14--12-----:|--8--7-----
B |-----------------:|--|--|--|----------------------------:|-----------
Gb|-----------------:|--|--|--|----------------------------:|-----------
B |--13--12--8--11--:|--|--|--|----------------------------:|-----------

							http://www.guitartabcreator.com