April Showers Created By zhengg23 on 2022-01-18
(/) Slide Up  (\) Slide Down  (h) Hammer On  (p) Pull Off  (b) Bend (r) Release (v) Vibrato

Stave 1:

G|--9--6----------------------------------------------------------------
D|--------7--7--7--7--7--7--7--7--7--7--7--7--7--7--7--7--7--7--7--7\---
A|----------------------------------------------------------------------
E|----------------------------------------------------------------------
B|----------------------------------------------------------------------

Stave 2:

G|-----------------------------------------------------------------------------------------------------------------------------------------------------
D|-----------------------------------------------------------------------------------------------------------------------------------------------------
A|--5--5--3-----5--------5--5--3--------5--5--3-----5--------5-----7--5--7--9--9--7-----9--------9--9--7--------9--9--7-----9--------9--9--7-----------
E|-----------5--------5-----------5--------------5--------5-----5--------------------9--------9-----------9--------------9--------9-----------9--------
B|-----------------------------------------------------------------------------------------------------------------------------------------------7-----

Stave 3:

G|-----------------------------------------------------------------------------------
D|--------------5--------5--5--3--------------------5--------5-----------------------
A|-----------5--------5-----------5--------------5--------5-----5--3--5--------------
E|--3--3--6-----------------------------3--3--6--------------------------3--6--------
B|-----------------------------------------------------------------------------------

							http://www.guitartabcreator.com