Holly Holly Chistmass Created By Kavpui on 2021-11-13
(/) Slide Up  (\) Slide Down  (h) Hammer On  (p) Pull Off  (b) Bend (r) Release (v) Vibrato

Stave 1:

E|-------------------|:-------------------|-------------------------------|-------------------|-------|---------------------------|-------------------|---
B|-------------------|:---1---1---0---0---|-------0-----------------------|-------------------|-------|---0---0---0---------------|-------------------|---
G|---------------0---|:-------------------|---2-------2---------------0---|---2---2---0---0---|-------|-------------------2-------|---0---0---0-------|---
D|-----------2-------|:-------------------|---------------2-------2-------|-------------------|-------|---------------------------|---------------2---|---
A|-------------------|:-------------------|-------------------------------|-------------------|---2---|---------------------------|-------------------|---
E|-------------------|:-------------------|-------------------------------|-------------------|-------|---------------------------|-------------------|---

Stave 2:

E|-------------------|-------------------:|-------------------|-------|---------------|---------------|-------------------|-------|---
B|-------------------|-------------------:|-------------------|-------|---1-------1---|---0-----------|-------------------|-------|---
G|---0---0-------0---|---------------0---:|---0---0-----------|-------|---2---2-------|-------0---0---|---2-----------2---|---0---|---
D|-----------3-------|---2-------2-------:|-----------3---0---|-------|---------------|---------------|-------3---3-------|---2---|---
A|-------------------|-------------------:|-------------------|---3---|---------------|---------------|-------------------|-------|---
E|-------------------|-------------------:|-------------------|-------|---------------|---------------|-------------------|-------|---

Stave 3:

E|---------------|---------------|-------------------|-----------------------|-------------------|---------------------------|-------------------|---
B|---------------|---------------|-------------------|-----------------------|---1---1---0---0---|-------0---------------0---|-------------------|---
G|---------------|-------2---2---|-------------------|---0---------------0---|-------------------|---2-------2---------------|---2---2---0---0---|---
D|---3---0---3---|---2-----------|---0---0---2---4---|---------------2-------|-------------------|---------------2---2-------|-------------------|---
A|---------------|---------------|-------------------|-----------------------|-------------------|---------------------------|-------------------|---
E|---------------|---------------|-------------------|-----------------------|-------------------|---------------------------|-------------------|---

Stave 4:

E|-------|---------------------------|-------------------|-----------|-----------|-------|-----------|---
B|-------|---0---0---0-------0-------|---------------1---|---3-------|-------0---|---1---|---1-------|---
G|-------|---------------2-----------|-------0---0-------|-------2---|---2-------|-------|-----------|---
D|-------|-----------------------3---|---2---------------|-----------|-----------|-------|-----------|---
A|---2---|---------------------------|-------------------|-----------|-----------|-------|-----------|---
E|-------|---------------------------|-------------------|-----------|-----------|-------|-----------|---

							http://www.guitartabcreator.com 
Botella Tras Botella (short version) Created By kimberlycastro11913 on 2021-11-13
(/) Slide Up  (\) Slide Down  (h) Hammer On  (p) Pull Off  (b) Bend (r) Release (v) Vibrato

Stave 1:

E|-----------------------------------------------------------------------------------------------------------
B|-----------1-0-------------------------------------------------1-0-----------------------------------------
G|-------0---------2-0-2-0---0---2-0---------------------------0-----2-0-2-0---0---2-0-----------------------
D|-----------------------------2---------2-2-2-2---------------------------------2---------2-2-2-2-----------
A|-----------------------------------------------0-0-----------------------------------------------0-0-------
E|-----------------------------------------------------------------------------------------------------------

Stave 2:

E|-----------------------------------------------------------------------1-0-----------3-3-3-1-1-0-----------
B|-----------1-0-1-0-1-0-------------------1-0-1-0-1-0-----------1-1-3-1---------------------------3-1-0-----
G|---------0-------------2-0-2-------------------------2-0-2-------------------------0-----------------------
D|-----------------------------------2-2-2-------------------------------------------------------------------
A|-----------------------------------------------------------------------------------------------------------
E|-----------------------------------------------------------------------------------------------------------

Stave 3:

E|-----3-0-3-0-3-0-3-0-5-0---------0-1-0-----------------------------
B|-----------------------------1-3---------3---1---0-------1-1-------
G|-------------------------------------------------------------------
D|-------------------------------------------------------------------
A|-------------------------------------------------------------------
E|-------------------------------------------------------------------

							http://www.guitartabcreator.com