Ionian Mode 7th Chord Up, scalar down; Skipping 2 (Re) INCOMPLETE Created By js_tabs on 2022-01-18
(/) Slide Up  (\) Slide Down  (h) Hammer On  (p) Pull Off  (b) Bend (r) Release (v) Vibrato

Stave 1:

E|-----------------------------------|-----
B|-----------------2-----------------|-----
G|--------------2-----4--2-----------|-----
D|-----------4--------------5--2-----|-----
A|--5--4--5-----------------------5--|-----
E|-----------------------------------|-----

Stave 2:

E|-----------------------------------|-----------------5--9--7--5-----------------|------------------------------------|--------------5--9--7--5--3--------|--|--------
B|-----------------------------------|--------------7--------------8--5-----------|------------------------------------|--3--2--3--7-----------------5--3-----|--------
G|-----------------6--4--------------|-----7--6--7-----------------------7--------|------------------------------------|-----------------------------------|--|--------
D|-----------4--7--------7--5--------|--------------------------------------------|--------------7--11--9--7--5--------|-----------------------------------|--|--------
A|--5--4--5--------------------7--5--|--------------------------------------------|--5-----5--9------------------7--5--|-----------------------------------|--|--------
E|-----------------------------------|--------------------------------------------|-----9------------------------------|-----------------------------------|--|--------

Stave 3:

E|---------------------------------------|------------------9--7---------------|-----------------------------------------|-------------------9--------------------|--|--
B|---------------------------------------|-----------7--10--------10--8--------|-----------------------------------------|---------------10-----12--10--8---------|--|--
G|-------------------6-------------------|--7--6--7----------------------9--7--|-----------------------------------------|--7--6--7--11--------------------11--9--|--|--
D|----------------7-----9--7-------------|-------------------------------------|--------------------11--9--7-------------|----------------------------------------|--|--
A|-------------9--------------10--7------|-------------------------------------|-------------9--12------------10--7------|----------------------------------------|--|--
E|--10--9--10------------------------10--|-------------------------------------|--10--9--10--------------------------10--|----------------------------------------|--|--

							http://www.guitartabcreator.com 
Jesus Loves Me Created By Troubaourtt on 2022-01-18
(/) Slide Up  (\) Slide Down  (h) Hammer On  (p) Pull Off  (b) Bend (r) Release (v) Vibrato

Stave 1:

E|--------------|-----------0--|--------------|-----------0--|--------------|-----------0--|--------------|-----------0--|-----0--------|--
B|--------------|-----------1--|--------1-----|-----------1--|--------------|-----------1--|--------------|-----------1--|-----1--------|--
G|--0-----------|-----0--0--0--|--2--2-----2--|--2--0--0--0--|--0-----------|-----0--0--0--|--2--2--0-----|-----------0--|--0--0-----0--|--
D|-----2--2--0--|--2-----------|--------------|--------------|-----2--2--0--|--2-----------|--------------|--2--0--------|--------2-----|--
A|--------------|--------------|--------------|--------------|--------------|--------------|-----------3--|--------3-----|--------------|--
E|--------------|--------------|--------------|--------------|--------------|--------------|--------------|--------------|--------------|--

Stave 2:

E|-----------0--|-----0--------|-----------3--|-----0--------|--------------|--------------|-----0--|--|--
B|-----1--1--1--|-----1--------|-----------0--|-----1--------|-----1--1-----|--------------|-----1--|--|--
G|--2--------0--|--0--0--------|-----------0--|--0--0-----0--|--2--------2--|--0-----------|-----0--|--|--
D|--------------|--------2-----|--2--0--0-----|--------2-----|--------------|--------2--0--|--------|--|--
A|--------------|-----------3--|--------------|--------------|--------------|-----3--------|--3-----|--|--
E|--------------|--------------|--------------|--------------|--------------|--------------|--------|--|--

							http://www.guitartabcreator.com 
scale? Created By The Fat Dog 21 on 2022-01-18
(/) Slide Up  (\) Slide Down  (h) Hammer On  (p) Pull Off  (b) Bend (r) Release (v) Vibrato

Stave 1:

E|---------------------------------------------------------------------------------------------------------------------
B|---------------------------------------------------------------------------------------------------------------------
G|---------------------------------------------------------------------------------------------------------------8-----
D|-------------------------------------------------------------------------------------------------------------9---9---
A|-----------------------------------------------------------------------------------------------------------8-------6-
E|-4-4-4-4-3-3-3-3-6-6-6-6-7-7-7-7-6-6-6-6-0-0-0-0-2-2-2-2-0-0-0-0-4-4-4-4-3-3-3-3-6-6-6-6-7-7-7-7-6-6-6-6-7-----------

Stave 2:

E|-----------------------------------------------------------------------------------------------------------------
B|-----------------------------------------------------------------------------------------------------------------
G|-------------------------------------------------------------------------------------------------------8---------
D|---------------------------------------------------------------------------------------------------9-----9-------
A|---------6---5-------------8---------6---5-----------------------6---5-------------8---------6-5-----8-----6-8---
E|-2-2-2-2-4-2-3-2-7-6-5-6-5---2-2-2-2-4-2-3-2-2-2-2-2-2-2-2-2-2-2-4-2-3-2-7-6-5-6-5---2-2-2-2-4-3-7-------------7-

Stave 3:

E|-------------------------------------------------------------------
B|-------------------------------------------------------------------
G|-------8---------------------------------8-------------------------
D|---9-----9---------------8-7---------9-----9-------------8-7-------
A|-----8-----6-8---------8---------------8-----6-8-------8-----------
E|-7-------------7-6-6-7-------7-6-5-7-------------7-6-7-------7-6-5-

							http://www.guitartabcreator.com 
tanae song Created By The Fat Dog 21 on 2022-01-18
(/) Slide Up  (\) Slide Down  (h) Hammer On  (p) Pull Off  (b) Bend (r) Release (v) Vibrato

Lead Guitar

E|--0--4--5--------3--2-----0--2--0-----0--4--5--------3--2-----0--2--------
B|-----------4--5--------------------3-----------4--5-----------------3--0--
G|--------------------------------------------------------------------------
D|--------------------------------------------------------------------------
A|--------------------------------------------------------------------------
E|--------------------------------------------------------------------------

Rythym Guitar

E|--2--2--2-----2--2--2--2--5--5--5-----5--5--5--5--9--9--9-----9--9--9--9--7--7--7-----7--7--7--7--
B|--2--2--2-----2--2--2--2--5--5--5-----5--5--5--5--9--9--9-----9--9--9--9--7--7--7-----7--7--7--7--
G|--2--2--2-----2--2--2--2--6--6--6-----6--6--6--6--9--9--9-----9--9--9--9--8--8--8-----8--8--8--8--
D|--4--4--4-----4--4--4--4--7--7--7-----7--7--7--7--9--9--9-----9--9--9--9--9--9--9-----9--9--9--9--
A|--4--4--4-----4--4--4--4--7--7--7-----7--7--7--7--7--7--7-----7--7--7--7--9--9--9-----9--9--9--9--
E|--2--2--2-----2--2--2--2--5--5--5-----5--5--5--5--------------------------7--7--7-----7--7--7--7--

Bass Guitar

E|--------------------------------------------------------------------------
B|--------------------------------------------------------------------------
G|--------------------------------------------------------------------------
D|--------------------------------------------------------------------------
A|-----------6--7--------4--------4--2-----------6--7--------4--------4--2--
E|--0--4--5--------3--2-----0--2--------0--4--5--------3--2-----0--2--------

Stave 4:

E|--------------------------------------
B|--------------------------------------
G|--------------------------------------
D|-----6--7--------5--4-----------------
A|--7--------6--7--------4--------4--2--
E|--------------------------0--2--------

							http://www.guitartabcreator.com 
big mouth lead Created By andyschumann on 2022-01-18
(/) Slide Up  (\) Slide Down  (h) Hammer On  (p) Pull Off  (b) Bend (r) Release (v) Vibrato

Stave 1:

E|--------
B|--------
G|--8-----
D|--8--7--
A|--6--7--
E|-----5--

Stave 2:

E|--6--5--3--------------
B|-----------6--3--1--6--
G|-----------------------
D|-----------------------
A|-----------------------
E|-----------------------

Stave 3:

E|--6-----6-----5-----5-----3-----3-----1-----1--------1-----1-----1-----1--6-----6-----5--
B|-----6-----6-----6-----6-----6-----6-----6-----6--4-----4-----6-----6--------6-----6-----
G|-----------------------------------------------------------------------------------------
D|-----------------------------------------------------------------------------------------
A|-----------------------------------------------------------------------------------------
E|-----------------------------------------------------------------------------------------

Stave 4:

E|-----|------|------|-----|--------|---------
B|-----|------|------|-----|--------|---------
G|-----|--10--|--12--|--8--|--5--8--|-----10--
D|--8--|--10--|--12--|--8--|--5--8--|--8--10--
A|--8--|--8---|--10--|--6--|--3--6--|--8--8---
E|--6--|------|------|-----|--------|--6------

Stave 5:

E|-----6--8--10--|--13--10--8--6--|--10--10--10--10--10--10--10--
B|--6------------|----------------|--11--11--11--11--11--11--11--
G|---------------|----------------|------------------------------
D|---------------|----------------|------------------------------
A|---------------|----------------|------------------------------
E|---------------|----------------|------------------------------

Stave 6:

E|-----|-----|-----|-----
B|-----|-----|-----|-----
G|-----|-----|--5--|-----
D|--8--|--5--|--5--|--3--
A|--8--|--5--|--3--|--3--
E|--6--|--3--|-----|--1--

Stave 7:

E|--6--8--10--6--|--8--6--|--10--6--|--8--6--|--6--
B|---------------|--------|---------|--------|-----
G|---------------|--------|---------|--------|-----
D|---------------|--------|---------|--------|-----
A|---------------|--------|---------|--------|-----
E|---------------|--------|---------|--------|-----

							http://www.guitartabcreator.com