Souvenir d'automne Created By jstals27 on 2021-11-23
(/) Slide Up  (\) Slide Down  (h) Hammer On  (p) Pull Off  (b) Bend (r) Release (v) Vibrato

Stave 1:

E|--------------------------|--------------------------|--------------------------|-----------------2p0--------
B|-----------0-----------0--|-----------0-----------0--|-----------0-----------0--|-----------0----------0-----
G|--------0-----0-----0-----|--------0-----0-----0-----|--------0-----0-----0-----|--------0-----0----------0--
D|-----4-----------4--------|-----4-----------4--------|-----4-----------4--------|-----4----------------------
A|--2-----------------------|--0-----------------------|--------------------------|--0-------------------------
E|--------------------------|--------------------------|--3-----------------------|----------------------------

Stave 2:

E|--------------------------|--------------------------|--------------------------|--------------------------
B|-----------0-----------0--|-----------0-----------0--|-----------0-----------0--|-----------0-----------0--
G|--------0-----0-----0-----|--------0-----0-----0-----|--------2-----2-----2-----|--------0-----0-----0-----
D|-----4-----------4--------|-----4-----------4--------|-----4-----------4--------|-----0-----------0--------
A|--2-----------------------|--0-----------------------|--------------------------|--3-----------------------
E|--------------------------|--------------------------|--3-----------------------|--------------------------

Stave 3:

E|--------------------------|----------------------------|--------------------------|----------------------------
B|-----------0-----------0--|-----------0-----2p0--------|-----------0-----------0--|-----------0-----2p0--------
G|--------3-----3-----3-----|--------3-----3-------3-----|--------3-----3-----3-----|--------3-----3-------3-----
D|-----4-----------4--------|-----4-------------------4--|-----4-----------4--------|-----4-------------------4--
A|--2-----------------------|----------------------------|--2-----------------------|----------------------------
E|--------------------------|--0-------------------------|--------------------------|--0-------------------------

Stave 4:

E|--------------------------|--------------------------|--------------------------|--------------------------
B|-----------0-----------0--|-----------0-----------0--|-----------0-----------0--|-----------0-----------0--
G|--------0-----0-----0-----|--------0-----0-----0-----|--------0-----0-----0-----|--------0-----0-----0-----
D|-----4-----------4--------|-----4-----------4--------|-----4-----------4--------|-----4-----------4--------
A|--------------------------|--0-----------------------|--2-----------------------|--------------------------
E|--3-----------------------|--------------------------|--------------------------|--0-----------------------

Stave 5:

E|--------------------------|-----------------2p0-------------------------------------------
B|-----------0-----------0--|-----------0----------0-----------------0-----------0-----7h---
G|--------0-----0-----0-----|--------0-----0----------0-----------3-----3-----3-------------
D|-----4-----------4--------|-----4----------------------------4-----------4----------------
A|--------------------------|--0----------------------------2-------------------------------
E|--3-----------------------|---------------------------------------------------------------

							http://www.guitartabcreator.com 
molchat doma kletka Created By bergio on 2021-11-23
(/) Slide Up  (\) Slide Down  (h) Hammer On  (p) Pull Off  (b) Bend (r) Release (v) Vibrato

Stave 1:

E|-----------------------------------------------------------------------------------------------------------|--
B|-----------------------------------------------------------------------------------------------------------|--
G|-----------------------------------------------------------------------------------------------------------|--
D|--5--5--5--5--5--5--5--5--8--8--8--7--7--7--7--7--7/12--12--12--10--10--10--10--10\8--8--8--7--7--7\3v-----|--
A|-----------------------------------------------------------------------------------------------------------|--
E|-----------------------------------------------------------------------------------------------------------|--

Stave 2:

E|--3--------6-----3--|-----3v--------3v--------3v-----------6v-----6v-----8v-----6v--|-----6v-----6v-----6v-----6v--|--
B|--4-----6--6-----4--|--3---------3---------3------------6------6------8------8------|--6------6------6------6------|--
G|--5--------------5--|---------------------------------------------------------------|------------------------------|--
D|--5--------------5--|---------------------------------------------------------------|------------------------------|--
A|--3--------------3--|---------------------------------------------------------------|------------------------------|--
E|--------------------|---------------------------------------------------------------|------------------------------|--

Stave 3:

E|--3--3--3--3--3--3--3--3--3--3--3--3--3--3--3--3--6--6--6--6--6--6--6--6--6--6--6--6--6--6--6--6--8--8--10--10--10--10--10--10--10--10--10--10--10--10--10--10--10--10--
B|------------------------------------------------------------------------------------------------------------------------------------------------------------------------
G|------------------------------------------------------------------------------------------------------------------------------------------------------------------------
D|------------------------------------------------------------------------------------------------------------------------------------------------------------------------
A|------------------------------------------------------------------------------------------------------------------------------------------------------------------------
E|------------------------------------------------------------------------------------------------------------------------------------------------------------------------

Stave 4:

E|--10--6--6--6--3--3--3--3--3--3--3--3--3--3--3--3--3--3--3--3--|--
B|---------------------------------------------------------------|--
G|---------------------------------------------------------------|--
D|---------------------------------------------------------------|--
A|---------------------------------------------------------------|--
E|---------------------------------------------------------------|--

							http://www.guitartabcreator.com 
All of me Created By viniciusdgc on 2021-11-23
(/) Slide Up  (\) Slide Down  (h) Hammer On  (p) Pull Off  (b) Bend (r) Release (v) Vibrato

Stave 1:

E|-----------|--------------|-----------|-----------|-----------------|--------|-----|--
B|-----------|--------------|-----------|-----------|-----------------|--------|-----|--
G|--5--------|-----5--7--5--|--4--------|-----------|-----------3-----|--------|-----|--
D|-----5-----|--------------|-----6-----|--7--5-----|--------------7--|--5--3--|--3--|--
A|--------7--|--7-----------|--------7--|--------7--|--7--6--7--------|--------|-----|--
E|-----------|--------------|-----------|-----------|-----------------|--------|-----|--

Stave 2:

E|-----------|--------------|--------|-----|-----------|--------------|-----|-----|--
B|-----------|--------------|--------|-----|-----------|--------------|-----|-----|--
G|-----------|-----------4--|--7--5--|--5--|--4--3--2--|--2-----7--4--|--2--|--4--|--
D|-----------|--------6-----|--------|-----|-----------|-----7--------|-----|-----|--
A|--7--6--5--|--5--7--------|--------|-----|-----------|--------------|-----|-----|--
E|-----------|--------------|--------|-----|-----------|--------------|-----|-----|--

Stave 3:

E|-----------|--------|-----------|--------|-----------|--------|-----|--
B|-----------|--------|-----------|--------|-----------|--5--5--|-----|--
G|--7--5--4--|--7--5--|--4--------|--4--2--|--5-----5--|--------|--5--|--
D|-----------|--------|--------5--|--------|-----------|--------|-----|--
A|-----------|--------|-----7-----|--------|-----7-----|--------|-----|--
E|-----------|--------|-----------|--------|-----------|--------|-----|--

							http://www.guitartabcreator.com 
jamming force Created By ippogr2021 on 2021-11-23
(/) Slide Up  (\) Slide Down  (h) Hammer On  (p) Pull Off  (b) Bend (r) Release (v) Vibrato

Stave 1:

E|----------------------------------------------------------------------------------------------------------------------------------------------------------------------------------------------------------------------------
B|----------------------------------------------------------------------------------------------------------------------------------------------------------------------------------------------------------------------------
G|----------------------------------------------------------------------------------------------------------------------------------------------------------------------------------------------------------------------------
D|--------------------------7-----------------------------------7-----------------------------------7---------------------------------------------------------------------------------------------------------------------10--
A|--------------7--8--7--------9--8--7--------------7--8--7--------9--8--7--------------7--8--7--------9--8--7-----9--9--7--7--5--5--------------------------5--------------------5--------------------5------------------8---
E|--0--0--0--0-----------9--------------0--0--0--0-----------9--------------0--0--0--0-----------9--------------7-----------------3--3--3--3--3--3--3--3--3--3--3--3--3--3--3--3--3--3--3--3--3--3--3--3--15--0--0--0--0------

							http://www.guitartabcreator.com