Konçerto Created By KHYAMPACK on 2022-02-28
(/) Slide Up  (\) Slide Down  (h) Hammer On  (p) Pull Off  (b) Bend (r) Release (v) Vibrato

Capo Fret 2

(W|WW) Whole  (H|HH) Half  (Q|QQ) Quarter  (E|EE) 8th (S|SS) 16th  (T|TT) 32nd (X|XX) 64th

Stave 1:
t:  W  W  W  W  W  W  W  W  W  W  W  W  W  W  W  W  W  W W  W  W  W  W  W  W  W  W  W W  W  W  W  W  W  W  W  W  W  W  W  W  W  W  W  W  W  W  W  W W  W  W  W  W  W  W  W W  W  W  W  W  W  W  W  W  WW  
E|--0-----0-----0-----------------0----------------------------------------0---------------------------------------------------------------------------------x----------------------------------------:|--
B|--1-----1-----1-----------------1----------------------------------------1-------------------0-------------------------------------------------------------0----------------------------------------:|--
G|--2-----2-----2-----------------2-----------------0--2p0-----------------0-------------0--2-----0----------------------------------------------------------1----------------------------------------:|--
D|--2-----2-----2-----2--0--2-----2--------2--2--3----------3--2--0--2-----2--------2h3--------------3--3--2--2--0--0--------2-----------0-------------------0----------------0-----------------------:|--
A|--0-----0-----0-----------------0-----0----------------------------------3-----0----------------------------------------------3--2--3-----2--0--2p0--2-----2-----------2h3-----3--2--2-----0--------:|--
E|--0-----0-----0-----------------0-----------------3----------------------0----------------------1-----------------------1----------------------------------3-----0----------------------------------:|--

Stave 2:
t:  W  W  W  W W  W  W  W  W  W W  W  W  W  W  W  W  W  W  W  W  W  W  W  W  W  W  W  W  W  W  W  
E|------------------------------------------------------------------------------------------------
B|------------------------------------------------------------0--1--1--1--0-----------------------
G|-------------------------0--2p0--2--------------------2--2-----------------0-----0--------------
D|----------------0--2--3----------------3--2--3--------------------------------3-----------------
A|-----0-----2h3-------------------------------------------------3--------------------------------
E|----------------------------1----------------------1-----------------------0-----------3--2--3--

							http://www.guitartabcreator.com 
90s Created By SharpEyes on 2022-02-28
(/) Slide Up  (\) Slide Down  (h) Hammer On  (p) Pull Off  (b) Bend (r) Release (v) Vibrato

Stave 1:

E|-------------------------------
B|-------------------------------
G|-------------------------------
D|--13--8--10--8--13--8--12--12--
A|--13--8--10--8--13--8--12--12--
E|--11--6--8---6--11--6--10--10--

Stave 2:

E|--------------------------------------------------------------------
B|--------------------------6--8--------------------------8--6--6-----
G|-----8-----7--8-----8--------------8-----7--8-----7--------------8--
D|--8-----8--------8-----8--------8-----8--------8-----8--------------
A|--------------------------------------------------------------------
E|--------------------------------------------------------------------

Stave 3:

E|------------------------------------------------------------------------------------
B|--6/8--8--8--8--8--6/8--8--8--8-----------------------------------------------------
G|---------------------------------7-----8-----7--8-----8-----7-----7-----7-----7--8--
D|------------------------------------8-----8--------8-----8-----8-----8-----8--------
A|------------------------------------------------------------------------------------
E|------------------------------------------------------------------------------------

Stave 4:

E|------------------
B|--16--18--20--11--
G|------------------
D|------------------
A|------------------
E|------------------

Stave 5:

E|----------------
B|----------------
G|----------------
D|--13--5--10--8--
A|--13--5--10--8--
E|--11--3--8---6--

							http://www.guitartabcreator.com 
Alandano - Nirukajitsu Created By gunsword151 on 2022-02-27
(/) Slide Up  (\) Slide Down  (h) Hammer On  (p) Pull Off  (b) Bend (r) Release (v) Vibrato

Stave 1:

E|--------------14-----12-----10-----9------9-------------7-----:|---------------------------------------------------------------9------14--------------
B|----------12--------------------------10-----10-----10--------:|--9--10--10--10--5--7--7--5--------------9--10--10--10------------10------13--12--10--
G|--11--11----------9------7------6----------------9---------9--:|-----------------------------5--5--4--------------------9--11-------------------------
D|--------------------------------------------------------------:|--6--7---7---7------------------------7--6--7---7---7---------------------------------
A|--------------------------------------------------------------:|--------------------------------------------------------------------------------------
E|--------------------------------------------------------------:|--------------------------------------------------------------------------------------

Stave 2:

E|-------------------------------------------------------------------------------12h14--12h14\17--|---------------------------------------------------
B|--9--10--10--10--5--7--7--5-----------10--10--10--9--5/7--5-------------12\14-------------------|--9--10--10--10--5--7--7--5--------------9--10-----
G|-----------------------------5--5--4-------------------------5\0--9h11--------------------------|-----------------------------5--5--4---------------
D|--6--7---7---7------------------------7---7---7---6---------------------------------------------|--6--7---7---7------------------------7--6--7------
A|------------------------------------------------------------------------------------------------|---------------------------------------------------
E|------------------------------------------------------------------------------------------------|---------------------------------------------------

Stave 3:

E|---------9------14--------------------------------------------------------5--4--7--14--14--14--|--
B|------------10------13--12--10--9--10--10--10--5--7--7--5--------------7-----------14--13--10--|--
G|--9--11----------------------------------------------------5--4-----6-----------4--------------|--
D|--------------------------------6--7---7---7---------------------7-----4-----------------------|--
A|--------------------------------------------------------------------4--------------------------|--
E|-----------------------------------------------------------------------------------------------|--

							http://www.guitartabcreator.com