Cloud Number - Bryan Adams Created By kunalbhatia8 on 2021-10-06
(/) Slide Up  (\) Slide Down  (h) Hammer On  (p) Pull Off  (b) Bend (r) Release (v) Vibrato

Stave 1:

E|------------------------------------------------------------------------------------------------------------------------------------------------------------------------------------------------
B|------------------------------------------------------------------------------------------------------------------------------------------------------------------------------------------------
G|------------------------------------------------------------------------------------------------------------------------------------------------------------------------------------------------
D|--2--4--4--4-----2--2--2--2--4--4--4--------4--5--5--5--4\2--2--4--5--5--5--------4--5--5--5--4--4--2--4--5--5--7-----4--5--5--5\2--5--5--4--4--4-----------------------------------------------
A|------------------------------------------------------------------------------------------------------------------------------------------------------------------------------------------------
E|------------------------------------------------------------------------------------------------------------------------------------------------------------------------------------------------

Stave 2:

E|-----------------------------------------------------------------------------------------------------------
B|-----------------3--3--3--3--2--2-----------------------------------3--3--3--2--2--------------------------
G|-----------------------------------4--4--4--2--2-----------------------------------4--4--2-----2--2--4--4--
D|--0-----------------------------------------------5--5--4--------------------------------------------------
A|-----------------------------------------------------------------------------------------------------------
E|-----------------------------------------------------------------------------------------------------------

Stave 3:

E|-----------------------------------------------------------------------------------------------------------------------
B|--------5--7--7--------5--7--7--7--7--7--8--8--7--5--7--8--8-----7--7--7\5--5--5\3--3--3\2--------5--8--8--7--5--7-----
G|--7--7-----------7--7-----------------------------------------------------------------------------------------------7--
D|-----------------------------------------------------------------------------------------------------------------------
A|-----------------------------------------------------------------------------------------------------------------------
E|-----------------------------------------------------------------------------------------------------------------------

							http://www.guitartabcreator.com 
The Interrupters - Take Back The Power Created By cssling69@gmail.com on 2021-10-06
(/) Slide Up  (\) Slide Down  (h) Hammer On  (p) Pull Off  (b) Bend (r) Release (v) Vibrato

Stave 1:

G|-----------------------------0-1-|---------------------------------
D|---------------------------------|-2-2-2-2-2-2-2-1-------------0-1-
A|-2-2-2-2-2-2-2-2-2-2-2-2-2-2-----|-----------------2-2-2-2-2-2-----
E|---------------------------------|---------------------------------

Stave 2:

G|---------------------------------|-----------------------------:|-
D|-2-2-2-2-2-2-2-1-----------------|-----------------------------:|-
A|-----------------2-2-2-2-2-2-2-2-|-----------------------------:|-
E|---------------------------------|-4-4-4-4-4-4-4-4-2-2-2-2---2-:|-

Stave 3:

G|---------------------4-4-1-1-----|---------------------------------
D|-----------------------------4-1-|-2-2-2-2-2-2-2-1-------------0-1-
A|-2-2-2-2-2-2-2-2-2-2-------------|-----------------2-2-2-2-2-2-----
E|---------------------------------|---------------------------------

Stave 4:

G|---------------------------------|---------------------------------|-
D|-2-2-2-2-2-2-2-1-----------------|---------------------------------|-
A|-----------------2-2-2-2-2-2-2-2-|---------------------------------|-
E|---------------------------------|-4-4-4-4-4-4-4-4-2-2-2-2-2-2-2-2-|-

Stave 5:

G|---------------------4-4-1-1-----|---------------------------------|-
D|-----------------------------4-1-|-2-2-2-2-2-2-2-1-------------0-1-|-
A|-2-2-2-2-2-2-2-2-2-2-------------|-----------------2-2-2-2-2-2-----|-
E|---------------------------------|---------------------------------|-

Stave 6:

G|---------------------------------|---------------------------------
D|-2-2-2-2-2-2-2-1-----1-1-2-2-4-4-|-----8-8-6-6-4-4-----6-6-4-4-3-3-
A|-----------------2-2-------------|-6-6-------------4-4-------------
E|---------------------------------|---------------------------------

Stave 7:

G|---------------------------------|-----------------------------------------
D|---------5-5-------------6-6-----|-9-9-----------------9-9-----------------
A|-6-6-6-6-----6-6-7-7-7-7-----7-7-|-----11-11-9-9-11-11-----11-11-9-9-11-11-
E|---------------------------------|-----------------------------------------

Stave 8:

G|---------------------------------|---------6-------6---6---------|-
D|---------5-5-------------6-6-----|-4-4-4-4---4-4-4---4-----------|-
A|-6-6-6-6-----6-6-7-7-7-7-----7-7-|-------------------------------|-
E|---------------------------------|-------------------------2---2-|-

Stave 9:

G|---------------------------------|---------------------------------
D|-----------------------------0-1-|-2-2-2-2-2-2-2-1-------------0-1-
A|-2-2-2-2-2-2-2-2-2-2-2-2-2-2-----|-----------------2-2-2-2-2-2-----
E|---------------------------------|---------------------------------

Stave 10:

G|---------------------------------|---------------------------------:|-
D|-2-2-2-2-2-2-2-1-----------------|---------------------------------:|-
A|-----------------2-2-2-2-2-2-2-2-|---------------------------------:|-
E|---------------------------------|-4-4-4-4-4-4-4-4-2-2-2-2-2-2-2-2-:|-

Stave 11:

G|---------------------------------|---------------------------------|-
D|-----------------------------0-1-|-2-2-2-2-2-2-2-1-------------0-1-|-
A|-2-2-2-2-2-2-2-2-2-2-2-2-2-2-----|-----------------2-2-2-2-2-2-----|-
E|---------------------------------|---------------------------------|-

Stave 12:

G|---------------------------------|---------------------------------|-
D|-2-2-2-2-2-2-2-1-----1-1-2-2-4-4-|-----8-8-6-6-4-4-----6-6-4-4-3-3-|-
A|-----------------2-2-------------|-6-6-------------4-4-------------|-
E|---------------------------------|---------------------------------|-

Stave 13:

G|---------------------------------|---------------------------------
D|-----------------------------0-1-|-2-2-2-2-2-2-2-1-------------0-1-
A|-2-2-2-2-2-2-2-2-2-2-2-2-2-2-----|-----------------2-2-2-2-2-2-----
E|---------------------------------|---------------------------------

Stave 14:

G|---------------------------------|---------------------------------:|-
D|-2-2-2-2-2-2-2-1-----------------|---------------------------------:|-
A|-----------------2-2-2-2-2-2-2-2-|---------------------------------:|-
E|---------------------------------|-4-4-4-4-4-4-4-4-2-2-2-2-2-2-2-2-:|-

Stave 15:

G|---------------------------------|-----------------------------------------
D|---------5-5-------------6-6-----|-9-9-----------------9-9-----------------
A|-6-6-6-6-----6-6-7-7-7-7-----7-7-|-----11-11-9-9-11-11-----11-11-9-9-11-11-
E|---------------------------------|-----------------------------------------

Stave 16:

G|---------------------------------|---------6-------6---6---------|-
D|---------5-5-------------6-6-----|-4-4-4-4---4-4-4---4-----------|-
A|-6-6-6-6-----6-6-7-7-7-7-----7-7-|-------------------------------|-
E|---------------------------------|-------------------------2---2-|-

Stave 17:

G|---------------------------------|---------------------------------
D|-----------------------------0-1-|-2-2-2-2-2-2-2-1-------------0-1-
A|-2-2-2-2-2-2-2-2-2-2-2-2-2-2-----|-----------------2-2-2-2-2-2-----
E|---------------------------------|---------------------------------

Stave 18:

G|---------------------------------|---------------------------------:|-----
D|-2-2-2-2-2-2-2-1-----------------|---------------------------------:|-----
A|-----------------2-2-2-2-2-2-2-2-|---------------------------------:|-2-2-
E|---------------------------------|-4-4-4-4-4-4-4-4-2-2-2-2-2-2-2-2-:|-----

Stave 19:

G|---------------------------------|---------------------------------
D|-----------------------------2-3-|-4-4-4-4-4-4-4-3-------------2-3-
A|-4-4-4-4-4-4-4-4-4-4-4-4-4-4-----|-----------------4-4-4-4-4-4-----
E|---------------------------------|---------------------------------

Stave 20:

G|---------------------------------|-----8-8-10-10-8-8-----6-6-8-8-6-6-
D|-4-4-4-4-4-4-4-3-----3-3-4-4-6-6-|-8-8---------------6-6-------------
A|-----------------4-4-------------|-----------------------------------
E|---------------------------------|-----------------------------------

Stave 21:

G|---------------------------------|-------------------------------------------------
D|---------8-8-------------9-9-----|-------------------------11-11-------------------
A|-8-8-8-8-----8-8-9-9-9-9-----9-9-|-11-11-13-13-11-11-13-13-------13-13-11-11-13-13-
E|---------------------------------|-------------------------------------------------

Stave 22:

G|---------------------------------|---------8-------8---8---------
D|---------8-8-------------9-9-----|-6-6-6-6---6-6-6---6-----------
A|-8-8-8-8-----8-8-9-9-9-9-----9-9-|-------------------------------
E|---------------------------------|-------------------------4---4-

Stave 23:

G|-------------------|---------------------------
D|---------------6-7-|---8-------------6---------
A|-4-----------8-----|---------------------------
E|-------------------|---------------------4---4-

Stave 24:

G|---------------------------------|---------------------------------
D|-----------------------------2-3-|-4-4-4-4-4-4-4-3-------------2-3-
A|-4-4-4-4-4-4-4-4-4-4-4-4-4-4-----|-----------------4-4-4-4-4-4-----
E|---------------------------------|---------------------------------

Stave 25:

G|---------------------------------|-----8-8-10-10-8-8-----6-6-8-8-6-6-
D|-4-4-4-4-4-4-4-3-----3-3-4-4-6-6-|-8-8---------------6-6-------------
A|-----------------4-4-------------|-----------------------------------
E|---------------------------------|-----------------------------------

Stave 26:

G|---------------------------------|-------------------------------
D|-----------------------------2-3-|-4-4-4-4-4-4-3-------------2-3-
A|-4-4-4-4-4-4-4-4-4-4-4-4-4-4-----|---------------4-4-4-4-4-4-----
E|---------------------------------|-------------------------------

Stave 27:

G|---------------------------------|-----10-10-8-8-6-6-----8-8-6-6-5-5-
D|-4-4-4-4-4-4-4-3-----3-3-4-4-6-6-|-8-8---------------6-6-------------
A|-----------------4-4-------------|-----------------------------------
E|---------------------------------|-----------------------------------

Stave 28:

G|-----8-8-10-10-8-8-----6-6-8-8-6-6-|-----10-10-8-8-6-6-----8-8-------
D|-8-8---------------6-6-------------|-8-8---------------6-6-----------
A|-----------------------------------|---------------------------------
E|-----------------------------------|---------------------------4---4-

Stave 29:

G|-------------
D|-------------
A|-4-----------
E|-------------

							http://www.guitartabcreator.com