Putterson Created By Jamal Harvey on 2021-04-15
(/) Slide Up  (\) Slide Down  (h) Hammer On  (p) Pull Off  (b) Bend (r) Release (v) Vibrato

Stave 1:

E|---------------------------------------------------------------------------------------------------------------------------------------------------------
B|--10--------10--------10--------10--------8--------8--------8--------8--------6--------6--------6--------6--------3--------3-----------------------------
G|------9---------9---------9---------9--------9--------9--------9--------9--------7--------7--------7--------7--------5--------5-----5--------5--------2--
D|---------7---------7---------7---------7--------7--------7--------7--------7--------7--------7--------7--------7--------4--------4-----4--------4--------
A|--0---------------------------------------0-----------------------------------5-----------------------------------------------------------5--------5--0--
E|------------------------------------------------------------------------------------------------------------------5--------------------------------------

Stave 2:

E|-----------------0--------5--------5--------5--------5--------7--------8--------8--------8--------8--------8--------8--------8--------10--------13------
B|--------1-----------1--------5--------6--------6--------6--------6------------------------------------------------------------------------------10--10--
G|--2--------2-----------2--------5--------7--------7--------7--------7-----9--------9--------9--------9--------9--------9--------9---------9-------------
D|-----2--------2--------------------------------------------------------------7--------7--------7--------7---------------------------------------0-------
A|-----------------------------------5-----------------------------------0-----------------------------------------0--------0--------0---------0----------
E|--------------------------------------------------------------------------------------------------------------------------------------------------------

Stave 3:

E|------13----------13----------13----------13----------12----------10----------10----------10----------10----------10----------8---------6--------6-----------------------------
B|----------10----------10------10--10----------10----------10----------10----------10----------10----------10----------10---------10-----------6--------------------------------
G|--10----------10----------10----------10----------10----------10----------10----------10----------10----------10----------10---------7-----7--------7--------------------------
D|------------------------------0-----------------------------------0-----------------------------------0-----------------------0------------------------------------------------
A|-------------------------------------------------------------------------------------------------------------------------------------------------------------------------------
E|----------------------------------------------------------------------------------------------------------------------------------------6--------------------------------------

Stave 4:

E|-----6--------6--------8--------6--------5--------5--------5--------5--------5--------7--------7--------7--------7--------9--------7--------5--------------
B|--6--------6--------6--------6--------6--------5--------5--------5--------5--------5--------5--------5--------5--------5--------6--------6-----5-----------
G|--------7--------7--------7--------7--------6--------6--------6--------6--------6--------7--------7--------7--------7--------7--------7-----------6-----6--
D|-----------------------------------------------------------------------------------------------------------------------------------------------------7-----
A|-----------------------------------------0--------------------------0-----------------0--------------------------------------------------------------------
E|-----6--------------------------------------------------------------------------------------------------------------------------------------5--------------

							http://www.guitartabcreator.com 
Manic Wah Created By Ads1 on 2021-04-15
(/) Slide Up  (\) Slide Down  (h) Hammer On  (p) Pull Off  (b) Bend (r) Release (v) Vibrato

Stave 1:Guitar 1

E|----------12----------12----------|--12----------12----------12------|----------11----------11----------|--11----------11----------11------|--
B|------10----------10----------10--|----------10----------10------10--|------10----------10----------10--|----------10----------10------10--|--
G|--11----------11----------11------|------11----------11--------------|--11----------11----------11------|------11----------11--------------|--
D|----------------------------------|----------------------------------|----------------------------------|----------------------------------|--
A|----------------------------------|----------------------------------|----------------------------------|----------------------------------|--
E|----------------------------------|----------------------------------|----------------------------------|----------------------------------|--

Stave 2: Guitar 1

E|----------10----------10----------|--10----------10----------10------|---------9---------9---------|--9---------9-----|--
B|------10----------10----------10--|----------10----------10------10--|------9---------9---------9--|---------9--------|--
G|--11----------11----------11------|------11----------11--------------|--11--------11--------10-----|-----10-----------|--
D|----------------------------------|----------------------------------|-----------------------------|------------------|--
A|----------------------------------|----------------------------------|-----------------------------|------------------|--
E|----------------------------------|----------------------------------|-----------------------------|------------------|--

Stave 3:Guitar 2

E|-----|--|-----|--|-----|--|-----|-----|--
B|-----|--|-----|--|-----|--|-----|-----|--
G|-----|--|-----|--|-----|--|-----|-----|--
D|--7--|--|--6--|--|--5--|--|--4--|--3--|--
A|-----|--|-----|--|-----|--|-----|-----|--
E|-----|--|-----|--|-----|--|-----|-----|--

							http://www.guitartabcreator.com 
Lady Starlight solo Created By metice on 2021-04-15
(/) Slide Up  (\) Slide Down  (h) Hammer On  (p) Pull Off  (b) Bend (r) Release (v) Vibrato



E|---------------------|---------------------------|--------------_--|------------------------|--
B|--7--------7--8--10--|---------------------------|--7-----7--8--10--|------------------------|--
G|---------------------|--7-----9--9b11r9--------|-----------8--10--|-----7-----9b11r9-----|--
D|---------------------|---------------------------|--------------_--|------------------------|--
A|---------------------|---------------------------|--------------_--|------------------------|--
E|---------------------|---------------------------|--------------_--|------------------------|--

Stave 2:

E|--14--15--17--15p14------14---------------------|----------------------------------------------------------|--
B|---------------------17------14--15--17--15p14--|------14--15--17--15--14------14--15--17--15--14--15--14--|--
G|------------------------------------------------|--16----------------------16------------------------------|--
D|------------------------------------------------|----------------------------------------------------------|--
A|------------------------------------------------|----------------------------------------------------------|--
E|------------------------------------------------|----------------------------------------------------------|--

Stave 3:

E|--------------------------------------------------------|--
B|--12--14--12--10--12--10p8--10--8--7--8--7-----7--------|--
G|--------------------------------------------9-----9b11--|--
D|--------------------------------------------------------|--
A|--------------------------------------------------------|--
E|--------------------------------------------------------|--

							http://www.guitartabcreator.com 
si patokaan Created By justin bernhard on 2021-04-15
(/) Slide Up  (\) Slide Down  (h) Hammer On  (p) Pull Off  (b) Bend (r) Release (v) Vibrato

Stave 1:

E|-----------------------------------------------------------
B|-----------------------------------------------------------
G|--------------0--0-----------------------------------------
D|--------------------2--0-----3--2--0-----------------------
A|--3--3--3--3--------------3-----------3--2--0--2--3--3--3--
E|-----------------------------------------------------------

Stave 2:

E|-----------------------------------------------------------
B|-----------------------------------------------------------
G|--------------0--0-----------------------------------------
D|--------------------2--0-----3--2--0-----------------------
A|--3--3--3--3--------------3-----------3--2--0--2--3--3--3--
E|-----------------------------------------------------------

Stave 3:

E|--------------------------------------------------------------------
B|-----------1--1--0--------1-----------------------------------------
G|--0--0--2-----------2--0--------2--0-----------0-----------0--0--0--
D|-----------------------------2--------3--2--0-----3--2--3-----------
A|--------------------------------------------------------------------
E|--------------------------------------------------------------------

Stave 4:

E|--------------------------------------------------------
B|-----1--1--0--------1--1--0--1--3--1--0-----0--1--1--1--
G|--2-----------2--0-----------------------2--------------
D|--------------------------------------------------------
A|--------------------------------------------------------
E|--------------------------------------------------------

							http://www.guitartabcreator.com