happier then ever/beginning last part Created By AlyciaLuthor on 2021-08-01
(/) Slide Up  (\) Slide Down  (h) Hammer On  (p) Pull Off  (b) Bend (r) Release (v) Vibrato

Stave 1:

E|-----------------------------------------------------------------------------------------------------------------------------------------------------------------------------------------------------------------------------------------------------------------------------------------------------------------------------------------------------------------------------------------------------------------------------------------------------------------------------------------
B|--------------------------------------------------------------------------------------------------------------------------------------------------1--1--1--------------------------------------------------------------------------------------------------------------------------------------------------------------------------------------------------------------------------------------------------------------------------------------------------------------------------------
G|--5--5--5--5--5--5--------------------------------------------------------5--5--5--5--5--5--------------------------------------------------------1--1--1-----5--5--5--5--5--5--------------------------------------------------------------------5--5--5--5--5--5--------------------------------------------------------------------5--5--5--5--5--5--------------------------------------------------------------------5--5--5--5--5--5-----------------------------------------------
D|--5--5--5--5--5--5--2--2--2--2--2--2--7--7--7--7--7--7--3--3--3--3--3--3--3--3--5--5--5--5-----2--2--2--2--2--2-----7--7--7--7--7--7-----3--3--3--3--3--3-----5--5--5--5--5--5-----2--2--2--2--2--2-----7--7--7--7--7--7-----3--3--3--3--3--3-----5--5--5--5--5--5-----2--2--2--2--2--2-----7--7--7--7--7--7-----3--3--3--------------5--5--5--5--5--5-----2--2--2--2--2--2-----7--7--7--7--7--7-----3--3--3--3--3--3-----3--3--3--3--3--3-----2--2--2--2--2--2--------------------------
A|--3--3--3--3--3--3--2--2--2--2--2--2--7--7--7--7--7--7--3--3--3--3--3--3--3--3--3--3--3--3-----2--2--2--2--2--2-----7--7--7--7--7--7-----3--3--3--3--3--3-----3--3--3--3--3--3-----2--2--2--2--2--2-----7--7--7--7--7--7-----3--3--3--3--3--3-----3--3--3--3--3--3-----2--2--2--2--2--2-----7--7--7--7--7--7-----3--3--3--------------3--3--3--3--3--3-----2--2--2--2--2--2-----7--7--7--7--7--7-----3--3--3--3--3--3-----3--3--3--3--3--3-----2--2--2--2--2--2--------------------------
E|--------------------0--0--0--0--0--0--5--5--5--5--5--5--1--1--1--1--1--1-----------------------0--0--0--0--0--0-----5--5--5--5--5--7-----1--1--1--1--1--1--------------------------0--0--0--0--0--0-----5--5--5--5--5--5-----1--1--1--1--1--1--------------------------0--0--0--0--0--0-----5--5--5--5--5--5-----1--1--1-----------------------------------0--0--0--0--0--0-----5--5--5--5--5--5-----1--1--1--1--1--1--------------------------0--0--0--0--0--0--0-----------------------

							http://www.guitartabcreator.com 
happier then ever Created By AlyciaLuthor on 2021-08-01
(/) Slide Up  (\) Slide Down  (h) Hammer On  (p) Pull Off  (b) Bend (r) Release (v) Vibrato

Stave 1:

E|-----------------------------------------------------------------------------------------------------------------------------------------------------------------------------------------------------------------------------------------------------------------------------------------------------------------------------------------------------------------------------------------------------------------------------------------------------------------------------------------
B|--------------------------------------------------------------------------------------------------------------------------------------------------1--1--1--------------------------------------------------------------------------------------------------------------------------------------------------------------------------------------------------------------------------------------------------------------------------------------------------------------------------------
G|--5--5--5--5--5--5--------------------------------------------------------5--5--5--5--5--5--------------------------------------------------------1--1--1-----5--5--5--5--5--5--------------------------------------------------------------------5--5--5--5--5--5--------------------------------------------------------------------5--5--5--5--5--5--------------------------------------------------------------------5--5--5--5--5--5-----------------------------------------------
D|--5--5--5--5--5--5--2--2--2--2--2--2--7--7--7--7--7--7--3--3--3--3--3--3--3--3--5--5--5--5-----2--2--2--2--2--2-----7--7--7--7--7--7-----3--3--3--3--3--3-----5--5--5--5--5--5-----2--2--2--2--2--2-----7--7--7--7--7--7-----3--3--3--3--3--3-----5--5--5--5--5--5-----2--2--2--2--2--2-----7--7--7--7--7--7-----3--3--3--------------5--5--5--5--5--5-----2--2--2--2--2--2-----7--7--7--7--7--7-----3--3--3--3--3--3-----3--3--3--3--3--3-----2--2--2--2--2--2--------------------------
A|--3--3--3--3--3--3--2--2--2--2--2--2--7--7--7--7--7--7--3--3--3--3--3--3--3--3--3--3--3--3-----2--2--2--2--2--2-----7--7--7--7--7--7-----3--3--3--3--3--3-----3--3--3--3--3--3-----2--2--2--2--2--2-----7--7--7--7--7--7-----3--3--3--3--3--3-----3--3--3--3--3--3-----2--2--2--2--2--2-----7--7--7--7--7--7-----3--3--3--------------3--3--3--3--3--3-----2--2--2--2--2--2-----7--7--7--7--7--7-----3--3--3--3--3--3-----3--3--3--3--3--3-----2--2--2--2--2--2--------------------------
E|--------------------0--0--0--0--0--0--5--5--5--5--5--5--1--1--1--1--1--1-----------------------0--0--0--0--0--0-----5--5--5--5--5--7-----1--1--1--1--1--1--------------------------0--0--0--0--0--0-----5--5--5--5--5--5-----1--1--1--1--1--1--------------------------0--0--0--0--0--0-----5--5--5--5--5--5-----1--1--1-----------------------------------0--0--0--0--0--0-----5--5--5--5--5--5-----1--1--1--1--1--1--------------------------0--0--0--0--0--0--0-----------------------

							http://www.guitartabcreator.com 
Blues in Eb 1 Created By Hibye4512 on 2021-08-01
(/) Slide Up  (\) Slide Down  (h) Hammer On  (p) Pull Off  (b) Bend (r) Release (v) Vibrato

Stave 1:

E|-------------------------------------------------------------
B|-------------------------------------------------------------
G|--13--11v--------13--11------13b15--11--11-------------------
D|-------------------------13-----------------13--11--13--13v--
A|-------------------------------------------------------------
E|-------------------------------------------------------------

Stave 2:

E|--------------------------------------------------------
B|--16--14--11/14--16v------------------------------------
G|----------------------------13--11--11------------------
D|----------------------------------------13--11h13--13v--
A|--------------------------------------------------------
E|--------------------------------------------------------

Stave 3:

E|----------------------------------------------------------------------------------------------
B|----------------------------------------------------------------------------------------------
G|--11--13--11--14--13--11h13v--14v--13--11h13-----------------11-------------------------------
D|--------------------------------------------v--------13--11------13--11\8--6--8--7--7v--6\4v--
A|----------------------------------------------------------------------------------------------
E|----------------------------------------------------------------------------------------------

Stave 4:

E|--
B|--
G|--
D|--
A|--
E|--

							http://www.guitartabcreator.com 
R U Mine - Arctic Monkeys Created By DanielF353 on 2021-07-31
(/) Slide Up  (\) Slide Down  (h) Hammer On  (p) Pull Off  (b) Bend (r) Release (v) Vibrato

Intro & Verse 1 0:00

E|----------------------------------------------------------
B|----------------------------------------------------------
G|----------------------------------------------------------
D|----------------------------------------------------------
A|-------------------------------------5-----5--5--4--2/14--
E|--2v-----2--2--2--2-----7h9--7h9--------------------------

0:18

E|------------------------------------------------------------
B|------------------------------------------------------------
G|------------------------------------------------------------
D|------------------------------------------------------------
A|------------------------------5-----5--5--4--2-----2--2--0--
E|--2--2--2--2-----7h9--7h9-----------------------------------

0:23

E|------------------------------------------------------------------
B|------------------------------------------------------------------
G|------------------------------------------------------------------
D|---------------------------7--------------------------------------
A|----------------------7h9-----9--7--5-----5--5--4--2-----2--2--0--
E|--2--2--2--2-----7h9----------------------------------------------

0:33

E|-----------------------------------------------------------------------
B|-----------------------------------------------------------------------
G|-----------------------------------------------------------------------
D|---------------------------7--9h7--------------------------------------
A|----------------------7h9----------9--7--5-----5--5--4--2-----2--2--0--
E|--2--2--2--2-----7h9---------------------------------------------------

0:38

E|---------------------------------------------------------------------------------
B|---------------------------------------------------------------------------------
G|---------------------------------------------------------------------------------
D|---------------------------7-----------------------------------------------------
A|----------------------7h9-----9--7--5-----5--5--4--2-----2--2--0-----------------
E|--2--2--2--2-----7h9-------------------------------------------------2--2--2--2--

0:45

E|-----------------------------------------------
B|-----------------------------------------------
G|-----------------------------------------------
D|-----------------------------------------------
A|--5-----5--5--4--2-----2--2--0-----------------
E|-----------------------------------2--2--2--2--

0:55

E|---------------------------------------------------------------------------------------------------------------------------
B|---------------------------------------------------------------------------------------------------------------------------
G|---------------------------------------------------------------------------------------------------------------------------
D|---------------------------------------------------------------------------------------------------------------------------
A|--5-----5--5--4--2-----2--2--0----------------------7h9-------7h9----------------------------------------------------------
E|--------------------------------2--2--2--2-----7h9-------7h9-------7h9--10-----10--10--9--7-----7--7--5--2--2--2--2--------

1:17

E|-----------------------------------------------
B|-----------------------------------------------
G|-----------------------------------------------
D|-----------------------------------------------
A|--------------5-----5--5--4--2-----2--2--0-----
E|--2v--/14--------------------------------------

1:33

E|-----------------------------------------------------------------------------
B|-----------------------------------------------------------------------------
G|-----------------------------------------------------------------------------
D|---------------------------7--9h7--------------------------------------------
A|----------------------7h9----------9--7--5-----5--5--4--2-----0h2--2h4--2h4--
E|--2--2--2--2-----7h9---------------------------------------------------------

1:58

E|------------------------------------------------------------------------------------------------------------------------------
B|------------------------------------------------------------------------------------------------------------------------------
G|------------------------------------------------------------------------------------------------------------------------------
D|------------------------------------------------------------------------------------------------------------------------------
A|-------7h9-------7h9----------------------------------------------------------------------------------------------------------
E|--7h9-------7h9-------7h9--10-----10--10--9--12-----9--7-----9--10-----2-----4--5-----7-----9--10--9--7--5--0--2--2--2--2-----

2:18

E|------------------------------------------------------------
B|----------------------7h10--10b12--10-----------------------
G|-----------------7h9-------------------9b11--9--------------
D|------------7h9---------------------------------------------
A|-------7h9--------------------------------------------------
E|--7h9-------------------------------------------2--2--2--2--

Stave 12:

E|-----
B|-----
G|-----
D|-----
A|-----
E|-----

							http://www.guitartabcreator.com 
Audioslave - Like A Stone Created By S4iD on 2021-07-31
(/) Slide Up  (\) Slide Down  (h) Hammer On  (p) Pull Off  (b) Bend (r) Release (v) Vibrato

Stave 1:

E|--
B|--
G|--
D|--
A|--
E|--
Stave 1:

E|----------------------------------
B|----------------------------------
G|-------------------------8-----7--
D|--8------10--------7--------------
A|-----10------8--5-----6-----6-----
E|----------------------------------

Stave 2:

E|--x--x--x--x--
B|--x--x--x--x--
G|--x--x--x--x--
D|--5--8--3--5--
A|--5--8--3--5--
E|--3--6--1--3--

Stave 3:

E|--x--x-----x--x--x--x--x--x--
B|--x--x-----x--x--x--x--x--x--
G|--8--x-----x--x--8--x--7--7--
D|--8--5-----3--5--8--5--7--7--
A|--6--5-----3--5--6--5--5--5--
E|--x--3-----1--3--x--3--x--x--

Stave 4:

E|---------------------------------------------------------
B|---------------------------------------------------------
G|---------------------------------------------------------
D|---------------------------------------------------------
A|---------------------------------------------13--15--17--
E|--15--17--18--20--18--17--15-----15--17--13--------------

Stave 5:

E|--------------------------------------------------
B|--------------------------------------------------
G|--15--15--15--14--14--14--------------------------
D|--------------------------15--15--15--------------
A|--------------------------------------17--17--17--
E|--------------------------------------------------

Stave 6:

E|--------------------------------------------------
B|--------------------------------------------------
G|--------------------------------------------------
D|--------------------------------------------------
A|--------------------------------------------------
E|--3--5--6--8--10--11--13--15--17--18--17--18--17--

							http://www.guitartabcreator.com