Michael Jackson - Billie Jean (Cover by DaniGuitarCovers) Created By DaniGuitarCovers on 2021-11-14
(/) Slide Up  (\) Slide Down  (h) Hammer On  (p) Pull Off  (b) Bend (r) Release (v) Vibrato

Intro

E|--2--4--5--4--2--4--5--4--
B|--2--4--5--4--2--4--5--4--
G|--------------------------
D|--------------------------
A|--------------------------
E|--------------------------

Verse

E|--------------------------------------------------------------------------------------------------------------------
B|--------------------------------------------------------------------------------------------------------------------
G|--4/6--6--4/6--6--4--2--4--6--x--x--4\2/6v--4/6--6--4/6--6--4--2--4--6--4--2--1-------------------------------------
D|---------------------------------------------------------------------------------4--x--x--4/6\4--x--x--4/6\4--x--x--
A|--------------------------------------------------------------------------------------------------------------------
E|--------------------------------------------------------------------------------------------------------------------



E|---------------------------------------------------------------------
B|---------------------------------------------------------------------
G|--------------2--2/4\2-----------------------------------------------
D|--4/6\4--2h4------------6--4--x--x--4/6\4--x--x--4/6\4--x--x--4/6\4--
A|---------------------------------------------------------------------
E|---------------------------------------------------------------------



E|--------------------------------------------------------------------------------------------------------------------
B|--------------------------------------------------------------------------------------------------------------------
G|--4/6--6--4/6--6--4--2--4--6--x--x--4\2/6v--4/6--6--4/6--6--4--2--4--6--4--2--1-------------------------------------
D|---------------------------------------------------------------------------------4--x--x--4/6\4--x--x--4/6\4--x--x--
A|--------------------------------------------------------------------------------------------------------------------
E|--------------------------------------------------------------------------------------------------------------------



E|---------------------
B|---------------------
G|---------6--4--2--1--
D|--4/6\4--------------
A|---------------------
E|---------------------

Pre-Chorus

E|-----------------------------------------------------------------------------------------------
B|-----------------------10------10---------------------------------------------------12b14--10--
G|--9--11--9--11--9--11------11------11--11--9--11--9--11--11--11--11--11--11b13--11-------------
D|-----------------------------------------------------------------------------------------------
A|-----------------------------------------------------------------------------------------------
E|-----------------------------------------------------------------------------------------------



E|----------------------------------------------------------------------------------------------------
B|---------------------------10-----------------------------------------------------------------------
G|--9--11--9--11--9--11--11------11--11--9--11--6--7--7--7--9--11--11--10--10--10--10--10--11/13--11--
D|----------------------------------------------------------------------------------------------------
A|----------------------------------------------------------------------------------------------------
E|----------------------------------------------------------------------------------------------------

Chorus

E|--------------------------------------------------------------------------------------------------------------------------
B|------------------------------------------------------------------------------------------12/14--12---------------12b14v--
G|--11--11--9-------11--11--9-------11--11--11--9-------11--14--14/16--14--13--11v--11--11-------------11-------------------
D|-------------11v-------------11v-----------------11v-----------------------------------------------------12--11v----------
A|--------------------------------------------------------------------------------------------------------------------------
E|--------------------------------------------------------------------------------------------------------------------------



E|--------------------------------------------------------------
B|--------------------------------------12/14--12---------------
G|--11--14--14/16--14--13--11v--11--11-------------11-----------
D|-----------------------------------------------------12--11v--
A|--------------------------------------------------------------
E|--------------------------------------------------------------

Verse 2

E|-------------------------------------------------------------------------------------------------------------------
B|-------------------------------------------------------------------------------------------------------------------
G|--4/6--6--4/6--6--4--2--4--6--x--x--4\2/6--4/6--6--4/6--6--4--2--4--6--4--2--1-------------------------------------
D|--------------------------------------------------------------------------------4--x--x--4/6\4--x--x--4/6\4--x--x--
A|-------------------------------------------------------------------------------------------------------------------
E|-------------------------------------------------------------------------------------------------------------------



E|-------------------------------------------------------------------------------------------
B|--------------------------------------------------------12--10--9h10--12--10--9h10--17b19--
G|--------------2--2/4\2--------------7--6---------------------------------------------------
D|--4/6\4--2h4------------6--4--4--4--------7--6/4-------------------------------------------
A|--------------------------------------------------5--4-------------------------------------
E|-------------------------------------------------------------------------------------------



E|-------------------------------------------------------------------------------------------------------------------
B|--12/14--14--12/14--14--12--10--12--14--x--x--12\10/14--12/14--14--12/14--14--12--10--9----------------------------
G|-----------------------------------------------------------------------------------------11--x--x--11/13\11--x--x--
D|-------------------------------------------------------------------------------------------------------------------
A|-------------------------------------------------------------------------------------------------------------------
E|-------------------------------------------------------------------------------------------------------------------



E|-------------------------------------------
B|----------------------------14--12--10--9--
G|--11/13\11--x--x--11/13\11-----------------
D|-------------------------------------------
A|-------------------------------------------
E|-------------------------------------------

Pre-Chorus 2

E|-------------------------------17-------------------------------------------------------19b21--17--
B|--17--19--17--19--17--19v--19------19--19--17--19v--17--19--19v--19--19--19--19b21--19-------------
G|---------------------------------------------------------------------------------------------------
D|---------------------------------------------------------------------------------------------------
A|---------------------------------------------------------------------------------------------------
E|---------------------------------------------------------------------------------------------------



E|-------------------------------17----------------------------------------------------------------------------------
B|--17--19--17--19--17--19v--19------19--19--17--19--14--15--15--15--17--19v--19--18--18--18--18--18--19--19b21--19--
G|-------------------------------------------------------------------------------------------------------------------
D|-------------------------------------------------------------------------------------------------------------------
A|-------------------------------------------------------------------------------------------------------------------
E|-------------------------------------------------------------------------------------------------------------------

Chorus 2

E|-------------------------------------------------------------17--17b19--16---------------19/21--19----------------------------
B|--19--19--17-------19--19--17-------19--19--19--17-------19-----------------19v--19--19-------------19-----------19--17-------
G|--------------18v--------------18v------------------18v-------------------------------------------------19--18v----------18v--
D|------------------------------------------------------------------------------------------------------------------------------
A|------------------------------------------------------------------------------------------------------------------------------
E|------------------------------------------------------------------------------------------------------------------------------



E|------------------------------------------------------------17--17b19--16---------------19b21--19---------------
B|--19--19--17-------19--19--17-------19--19--19--17------19-----------------19v--19--19-------------19-----------
G|--------------18v--------------18v------------------18-------------------------------------------------19--18v--
D|----------------------------------------------------------------------------------------------------------------
A|----------------------------------------------------------------------------------------------------------------
E|----------------------------------------------------------------------------------------------------------------



E|----------17--17b19--16---------------19b21--19---------------
B|--19--19-----------------19v--19--19-------------19-----------
G|-----------------------------------------------------19--18v--
D|--------------------------------------------------------------
A|--------------------------------------------------------------
E|--------------------------------------------------------------

							http://www.guitartabcreator.com 
June- Lead Guitar Tabs Created By RyanWelch566 on 2021-11-14
(/) Slide Up  (\) Slide Down  (h) Hammer On  (p) Pull Off  (b) Bend (r) Release (v) Vibrato

Verse: 0:22 - Look out for the 7/7 at the end. Those are important to play for the next lead guitar part

E|--7--------7--------9--------10--------9--------7--------9--------7--------------------
B|-----7-----8--------8--------8---------8--------8--------8--------7-----------7--------
G|--------7--9--------9--------9---------9--------9--------9--------7--------------7-----
D|-----------7--------7--------7---------7--------7--------7--------7--------------------
A|---------------------------------------------------------------------------------------
E|---------------------------------------------------------------------------------------

Verse: 0:33 - Look out for the chord at the end. That's where the music kinda pauses

E|----------------------------------------------------------------------------7-----------
B|----------------------------------------------------------------------------8-----------
G|---------------------------------------11-----------11-----11-----11--------9-----------
D|--7--7--9--9--11--11--12--11--9------------9--9--9------9------9------------7-----------
A|----------------------------------------------------------------------------------------
E|----------------------------------------------------------------------------------------

Guitar Solo: 0:47 - It's x3/x1 if that makes sense.

E|--------7-----9-----10--9------------------7-----------7-----------7--------------------
B|-----8-----8-----8---------10-----------------7-----7-----7-----7-----------------------
G|--9----------------------------------------------7-----------7--------------------------
D|----------------------------------------------------------------------------------------
A|----------------------------------------------------------------------------------------
E|----------------------------------------------------------------------------------------

Pre-Chorus: 1:08 It's x3/x1 if that makes sense.

E|--9--------------7-----------7-----------7-----------7-----------7-----------------------
B|-----10------10-----8-----8-----------------7-----7-----7-----7--------------------------
G|---------11------------9-----------------------7-----------7-----------------------------
D|-----------------------------------------------------------------------------------------
A|-----------------------------------------------------------------------------------------
E|-----------------------------------------------------------------------------------------

Chorus: 1:19

E|-----------------------------------------------------------------------------------------
B|-----------------------------------------------------------------------------------------
G|--7-----11--------7-----11--------7-----11-----11--11-----11--9-----9--------------------
D|-----9---------9-----9---------9-----9------9----------7---------7-----------------------
A|-----------------------------------------------------------------------------------------
E|-----------------------------------------------------------------------------------------

Outro: 2:32 - 1st part of the guitar solo'ish part

E|------------------------------------------------------------------------------------------
B|----------------10--12-----------12-------------------------------------------------------
G|--7--9--11--12-----------------------11-----11-----11-----11--11-----11-----11-----11-----
D|-----------------------------------------9------9------9----------9------9------9---------
A|------------------------------------------------------------------------------------------
E|------------------------------------------------------------------------------------------

Outro: 2:51 - 2nd part of the guitar solo'ish part

E|-------------------------------------------------------------------------------------------
B|----------10------12------10------10-----------10--------10--7--7--8--7--------------------
G|------11------11------11------11-------------------9--9------------------9--7--------------
D|--12---------------------------------------------------------------------------------------
A|-------------------------------------------------------------------------------------------
E|-------------------------------------------------------------------------------------------

							http://www.guitartabcreator.com 
(D PHRYGIAN DOMINANT) D STANDARD project FIX Created By adrianpangan on 2021-11-14
(/) Slide Up  (\) Slide Down  (h) Hammer On  (p) Pull Off  (b) Bend (r) Release (v) Vibrato

Stave 1: TAPPING INTRO                   FIX (PUT IN THE KEY OF D)  

E|---------------------------------------------------------------------------------------------------------------------------------------------------------------------------------------
B|---------------------------------------------------------------------------------------------------------------------------------------------------------------------------------------
G|---------------------------------------------------------------------------------------------------------------------------------------------------------------------------------------
D|--10p3h5h6h10p6h10p5-----9p3h5h6h9p5h9p3-----10p3h5h6h10p6h10p5-----9h3h5h6h9p5h9p3-----5h7h8h12-----5h7h8h13-----5h7h8h12/13p8p7-----5h7h8h12-----5h7h8h13-----5h7h8h12p8p7p5-----17--
A|---------------------------------------------------------------------------------------------------------------------------------------------------------------------------------------
E|---------------------------------------------------------------------------------------------------------------------------------------------------------------------------------------

Stave 2: RIFF UNDER TAPPING INTRO

E|--------------------------------------------------------------------------------------------------------------------------------------------------------------------------------------------
B|--------------------------------------------------------------------------------------------------------------------------------------------------------------------------------------------
G|--------------------------------------------------------------------------------------------------------------------------------------------------------------------------------------------
D|--------------------------2--------0-----------------------------------0--------2-----------------------------------------------------------------------------------------------------------
A|--3--------3--------------3--------2-----------3--------3--------------2--------3-----------------------------------------------------------------------------------------------------------
E|--1--------4-----------------------------------1--------4-----------------------------------------------------------------------------------------------------------------------------------

							http://www.guitartabcreator.com 
hey jude Created By Anna18 on 2021-11-14
(/) Slide Up  (\) Slide Down  (h) Hammer On  (p) Pull Off  (b) Bend (r) Release (v) Vibrato

Stave 1:

E|-----------------------------0--0--------------------------------2--0-----0--------------------------------------
B|--0--------0--2--------------------4--0--2--0--------0--2--2--2--------4-----2--0-----------2--0--0--------------
G|-----1--1--------------1--2--------------------2--1--------------------------------------1-----------2--1--------
D|-----------------4--4--------------------------------------------------------------2--4--------------------1--2--
A|-----------------------------------------------------------------------------------------------------------------
E|-----------------------------------------------------------------------------------------------------------------

Stave 2:

E|-----0-----------------------0-----0-----0-----------------------------------------------------0--1--2--2--
B|--------2--2--0--0-----2--2-----2-----------2--0-----0--2--0-----------------------0--2--3--3--------------
G|--------------------2-----------------2-----------2-----------2--1-----------------------------------------
D|--2-----------------------------------------------------------------4--2--------2--------------------------
A|-----------------------------------------------------------------------------------------------------------
E|-----------------------------------------------------------------------------------------------------------

Stave 3:

E|--------------------------2--3--6--7--12--------------2--0--2--0--2--0--2--0-----------
B|--------------------4--5---------------------------0--------------------------3--2--0--
G|--------0--1--3--4------------------------------1--------------------------------------
D|--1--2---------------------------------------2-----------------------------------------
A|---------------------------------------------------------------------------------------
E|---------------------------------------------------------------------------------------

							http://www.guitartabcreator.com