Angel eyes lead Created By Sacca on 2022-01-17
(/) Slide Up  (\) Slide Down  (h) Hammer On  (p) Pull Off  (b) Bend (r) Release (v) Vibrato

Stave 1:

E|--------------------------------------------------------------:|--|:--------------------:|--|:-----------------------:|--------------------------------------------------
B|--------------------------------------------------------------:|--|:--------------------:|--|:-----------------------:|--------------------------------------------------
G|-----------------5--7--7--7--5--------7--7--7--5--7--5--------:|--|:--------------------:|--|:-----------------------:|--------------------------------------------------
D|-----------5--7-----------------------------------------------:|--|:--7--7--7--5--------:|--|:--7--7--7--7--7--7--8--:|-----10--9--9--6-----------------------10--17-----
A|--5--7--8-----------------------8--8--------------------8--8--:|--|:--------------3--3--:|--|:-----------------------:|--8---------------11--8--11-----8--11-------------
E|--------------------------------------------------------------:|--|:--------------------:|--|:-----------------------:|-------------------------------------------15-----

Stave 2:

E|--------------:|--|:-----------------------------------------------------------------------------------------------------------------------------
B|--------------:|--|:-----------------------------------------------------------------------------------------------------------------------------
G|--------------:|--|:-----------------------------------------------------------------------------------------------------------------------------
D|--16--15--10--:|--|:-----------------------------------------------------------------------------------------------------------------------------
A|--------------:|--|:------12--11--8--------------------------12--17--16--15--12------12--11--11--8--------------------------8--10--8--10--8------
E|--14--13--8---:|--|:--10-------------13--10--13--15--10--13----------------------10-----------------13--10--13--15--10--13-------------------10--

							http://www.guitartabcreator.com 
call out my name Created By Doris Melo on 2022-01-17
(/) Slide Up  (\) Slide Down  (h) Hammer On  (p) Pull Off  (b) Bend (r) Release (v) Vibrato

Stave 1:

E|---------------------------------------------------------------------------------------------------------------------------------------
B|---------------------------------------------------------------------------------------------------------------------------------------
G|----------11--13/15--11h13--------11h13--11\10--10v------13--13/15--13--11--10-----------13--10------13--10----------11--13/15--11h13--
D|--13--13---------------------------------------------13-------------------------13v--11----------13----------13--13--------------------
A|---------------------------------------------------------------------------------------------------------------------------------------
E|---------------------------------------------------------------------------------------------------------------------------------------

Stave 2:

E|----------------------------------------------------------------------------------------------------------------------------------------------
B|---------14-----------------------------------------------------------------------------------------------------------------------------------
G|--13b15------15r13--11-------------11--11v--13--13/15--13--11--10----------13--10------13--10----------11--13/15--15/17\15--13--15r13--13b15--
D|------------------------11--11h13----------------------------------13--11----------13----------13--13-----------------------------------------
A|----------------------------------------------------------------------------------------------------------------------------------------------
E|----------------------------------------------------------------------------------------------------------------------------------------------

Stave 3:

E|----------------------------------16b18--
B|--------------11--14h16v--14--16---------
G|--13--11--13-----------------------------
D|-----------------------------------------
A|-----------------------------------------
E|-----------------------------------------

Stave 4:

E|--------
B|--------
G|--------
D|--------
A|--------
E|--------

Stave 5:

E|--
B|--
G|--
D|--
A|--
E|--

							http://www.guitartabcreator.com 
The Darkness Inside lead Created By Firebird on 2022-01-17
(/) Slide Up  (\) Slide Down  (h) Hammer On  (p) Pull Off  (b) Bend (r) Release (v) Vibrato

Stave 1:

E|--5--------------------5--3--------------------5--------------------5--3--------------------
B|-----3--5--------------------5--------------------3--5--------------------5-----------------
G|-----------0--2--4--0--------------4-----2--0-----------0--2--4--0--------------4-----2--0--
D|--------------------------------2--------------------------------------------2--------------
A|--------------------------------------------------------------------------------------------
E|--------------------------------------------------------------------------------------------

Stave 2:

E|--5----------------5-----------------5--7--
B|-----3--5------/7-----7--5-----5--7--------
G|----------------------------7--------------
D|-------------------------------------------
A|-------------------------------------------
E|-------------------------------------------

Stave 3:

E|--7--7--7--7--7--7--7--7--7--7--7--7--7--7--7--7--8--8--8--8--7--7--7--7--
B|--5--5--5--5--5--5--5--5--5--5--5--5--5--5--5--5--5--5--5--5--5--5--5--5--
G|--------------------------------------------------------------------------
D|--------------------------------------------------------------------------
A|--------------------------------------------------------------------------
E|--------------------------------------------------------------------------

							http://www.guitartabcreator.com 
project Created By notUrmom on 2022-01-17
(/) Slide Up  (\) Slide Down  (h) Hammer On  (p) Pull Off  (b) Bend (r) Release (v) Vibrato

Stave 1:

E|--|:------------------9---------------10------------------9------7--12--------------------5--5-----5--4--------------------------------7--7-----5--5--7--4--------------------------5--5-----5--4-----------4--5--------
B|--|:--12--10--12--10----------------------14--15--14--12-----12------------------------------------------7--5--7--------------------------------------------7--5-----------------------------------7--5--7--------------
G|--|:---------------------11---------------------------------------------------------4--6--------------------------6--6--------4--6--7-----------------------------------------4--6--------------------------------------
D|--|:-----------------------------------------------------------------------------7-----------------------------------------------------------------------------------------7--------------------------------------------
A|--|:--------------------------------------------------------------------------------------------------------------------------------------------------------------------------------------------------------------------
E|--|:--------------------------------------------------------------------------------------------------------------------------------------------------------------------------------------------------------------------

Stave 2:

E|--4-----4--5--------4--5--4--5h7--5--4--------
B|-----7-----------7----------------------7--5--
G|----------------------------------------------
D|----------------------------------------------
A|----------------------------------------------
E|----------------------------------------------

							http://www.guitartabcreator.com