Sean 1

Chords

01234567891011121314151617181920212223
E
B
G
D
A
E
B
0 1 2 3 4 5 6 7 8 9 10 11 12 13 14 15 16 17 18 19 20 21 22 23
(/) Slide Up  (\) Slide Down  (h) Hammer On  (p) Pull Off  (b) Bend (r) Release (v) Vibrato
E|--------------------------------------------------
B|--------------------------------------------------
G|--------------0-----------------------------2-----
D|-----------0-----4--2--0--2--4-----------0-----2--
A|--------0-----------------------------0-----------
E|--0--2--------------------------0--2--------------



E|--------------------------------------------------
B|--------------------------------------------------
G|--------------0--------------------------2--------
D|-----------0-----4--2--0--2--4--------------2--0--
A|--------0-----------------------------0-----------
E|--0--2--------------------------0--2--------------



E|--
B|--
G|--
D|--
A|--
E|--
							http://www.guitartabcreator.com
[[],[],[],[],[],[]]

Member for

8 years 8 months
Submitted by seanwill93 on Thu, 2011-09-29 19:02