Sound will begin in 5 seconds

Accidentally

01234567891011121314151617181920212223
E
B
G
D
A
E
B
0 1 2 3 4 5 6 7 8 9 10 11 12 13 14 15 16 17 18 19 20 21 22 23
Song Science #1: How Pros Use 6 Chords to Write Hit Songs
(/) Slide Up  (\) Slide Down  (h) Hammer On  (p) Pull Off  (b) Bend (r) Release (v) Vibrato

Stave 1:

E|-0--0-0-0-3-0--0-0---7-7-7--12--10-5-5-0-3-0-0---0--0----------0-0-----------0--0-0-0-
B|-5--5-5-5-5-5--5-5---8-8-8--0---0--0-0-0-1-1-1---1--1-0---0-3--5-5---0-0-----5--5-5-5-
G|-4--4-4-4-4-4--2-4---9-9-9--0---0--0-0-0---2-2---2--2-2---2-2--4-4---5-5-0-0-4--4-4-4-
D|-2--2-2-2-2-2--0-0-------------------------0-0---0--0-0---0-0--0-0---0-0-0-0-2--2-2-2-
A|------------------------------------------------------2---2-2--------7-3-2-2----------
E|-----------------------------------------------3---------------------0-0-3-3----------

Stave 2:

E|-0--0-0-0-2-3-2-0--x----------7-7-x-5---5-5-5-3-5-0--------------3-----0-0-3-0-0-0-0-0-0----
B|-5--5-5-5-5-5-5-5--5-5-5-5----8-8-x-8---8-8-8-0-0-1---1-1----------5-0-5-5-5-5-5-5-5-3-1----
G|-4--4-4-4-4-4-4-4--7-7-7-7----9-9-x-7---7-7-7-0-0-2---2-2-2---0--------4-4-4-4-2-4-2-2-0----
D|-2--2-2-2-2-2-2-2--0-0-0-0----9-9-x-5---5-5-5-----0---0-0-0---2--------2-2-2-2-0-0-0-0-0----
A|-------------------7-7-7-7----7-7-x-------------------3-0-0---2--------------------0--------
E|------------------------------7-7-x-----------------------3---0-----------------------------

Stave 3:

E|-0-0----
B|-1-1----
G|-0-0--0-
D|-0-0--2-
A|------2-
E|------0-

http://www.guitartabcreator.com
Guitar Tab Creator is intended to store guitar tab created through the tool. It currently does not support in-line text editing. Any text you place in here will be lost. If you need to comment on your tab, please use the "Tab Notes" section located below.