Diagonal 2 NPS Diminished Scale

01234567891011121314151617181920212223
E
B
G
D
A
E
B
0 1 2 3 4 5 6 7 8 9 10 11 12 13 14 15 16 17 18 19 20 21 22 23
(/) Slide Up  (\) Slide Down  (h) Hammer On  (p) Pull Off  (b) Bend (r) Release (v) Vibrato

Stave 1:

E|----------------------------------10--13--10----------------------------------|--
B|---------------------------9--12--------------12--9---------------------------|--
G|--------------------7--10----------------------------10--7--------------------|--
D|--------------6--9------------------------------------------9--6--------------|--
A|--------5--8------------------------------------------------------8--5--------|--
E|--4--7------------------------------------------------------------------7--4--|--

Stave 2:

E|------------------------------------------------------------------10--10--13--13--|--
B|----------------------------------------------------9--9--12--12------------------|--
G|--------------------------------------7--7--10--10--------------------------------|--
D|--------------------------6--6--9--9----------------------------------------------|--
A|--------------5--5--8--8----------------------------------------------------------|--
E|--4--4--7--7----------------------------------------------------------------------|--

							http://www.guitartabcreator.com
Chords

Instruments
{"strings":[[[".",".",".",".",".",".",".",".",".",".",10,13,10,".",".",".",".",".",".",".",".",".",".","|"],[".",".",".",".",".",".",".",".",9,12,".",".",".",12,9,".",".",".",".",".",".",".",".","|"],[".",".",".",".",".",".",7,10,".",".",".",".",".",".",".",10,7,".",".",".",".",".",".","|"],[".",".",".",".",6,9,".",".",".",".",".",".",".",".",".",".",".",9,6,".",".",".",".","|"],[".",".",5,8,".",".",".",".",".",".",".",".",".",".",".",".",".",".",".",8,5,".",".","|"],[4,7,".",".",".",".",".",".",".",".",".",".",".",".",".",".",".",".",".",".",".",7,4,"|"]],[[".",".",".",".",".",".",".",".",".",".",".",".",".",".",".",".",".",".",".",".",10,10,13,13,"|"],[".",".",".",".",".",".",".",".",".",".",".",".",".",".",".",".",9,9,12,12,".",".",".",".","|"],[".",".",".",".",".",".",".",".",".",".",".",".",7,7,10,10,".",".",".",".",".",".",".",".","|"],[".",".",".",".",".",".",".",".",6,6,9,9,".",".",".",".",".",".",".",".",".",".",".",".","|"],[".",".",".",".",5,5,8,8,".",".",".",".",".",".",".",".",".",".",".",".",".",".",".",".","|"],[4,4,7,7,".",".",".",".",".",".",".",".",".",".",".",".",".",".",".",".",".",".",".",".","|"]]],"numberofstrings":6,"notes":["E","B","G","D","A","E","B"],"capo":0,"stringnotes":["E4","B3","G3","D3","A2","E2"],"comments":["Stave 1:","Stave 2:"],"timing":[["W","W","W","W","W","W","W","W","W","W","W","W","W","W","W","W","W","W","W","W","W","W","W"],["W","W","W","W","W","W","W","W","W","W","W","W","W","W","W","W","W","W","W","W","W","W","W","W"]],"timingvisible":false,"tabcounter":25,"stave":1,"totalstaves":2,"instrument":"6guitar","selectedtuning":"6_standard","version":"13"}

Member for

4 months
Submitted by Scotty2Hotty98 on Tue, 2021-09-14 16:47