Sound will begin in 5 seconds

just like this train

01234567891011121314151617181920212223
E
B
G
D
A
E
B
0 1 2 3 4 5 6 7 8 9 10 11 12 13 14 15 16 17 18 19 20 21 22 23
Song Science #1: How Pros Use 6 Chords to Write Hit Songs
(/) Slide Up  (\) Slide Down  (h) Hammer On  (p) Pull Off  (b) Bend (r) Release (v) Vibrato

Stave 1:

E|-----------5--7--9--------2--0----------------------------------2--3------------------------------------
C|-----------5--7--9--------2--0----------------------------------2---------------------------------------
F|--2--4--5--5--7--9--9--2--2--0--4-----12--9--7--9--12--9--7--9--2-----9--7--9--2--4-----2--12--9--7--9--
D|--2--4--5--5--7--9--9--2--2--0--5--2--12--9--7--9--12--9--7--9--2-----9--7--9--2--5--2--2--12--9--7--9--
G|-----------------------------0--5--2----------------------------------------------5--2------------------
C|-----------------------------0--5-------------------------------------------------5---------------------

Stave 2:

E|-------------------------------------2--3------------------
C|-------------------------------------2---------------------
F|--12--9--7--4-----2--12--9--7--9--2--2-----4-----2--12--9--
D|--12--9--7--5--2--2--12--9--7--9--2--2-----5--2--2--12--9--
G|------------5--2---------------------------5--2------------
C|------------5------------------------------5---------------

Stave 3:

E|----
C|----
F|----
D|----
G|----
C|----

http://www.guitartabcreator.com
Guitar Tab Creator is intended to store guitar tab created through the tool. It currently does not support in-line text editing. Any text you place in here will be lost. If you need to comment on your tab, please use the "Tab Notes" section located below.