Sound will begin in 5 seconds

Adeste Fidelis

01234567891011121314151617181920212223
E
B
G
D
A
E
B
0 1 2 3 4 5 6 7 8 9 10 11 12 13 14 15 16 17 18 19 20 21 22 23
Song Science #1: How Pros Use 6 Chords to Write Hit Songs
(/) Slide Up  (\) Slide Down  (h) Hammer On  (p) Pull Off  (b) Bend (r) Release (v) Vibrato

Stave 1:

E|---------------------------------|-------------------------|---------------------------|--
B|---------------------------------|--14--12--14/15/14--12v--|---------------------------|--
G|--9/14--14------14--16--13-------|-------------------------|--14--14--13/11\13--14/16--|--
D|------------14--------------14v--|-------------------------|---------------------------|--
A|---------------------------------|-------------------------|---------------------------|--
E|---------------------------------|-------------------------|---------------------------|--

Stave 2:

E|-----------------------|--|------------------------------------------------------|--
B|--14-------------------|--|--14/17--15--14--15--15v------14----------------------|--
G|------13--11-----------|--|--------------------------16------14/16--13-----------|--
D|--------------14--14v--|--|---------------------------------------------16--14v--|--
A|-----------------------|--|------------------------------------------------------|--
E|-----------------------|--|------------------------------------------------------|--

Stave 3:

E|-----------------------------|--------------------------|----------------------------|--
B|-----------------------------|--14--14--12--14b14--12v--|--14/15--14--12-------------|--
G|--14--14--13--14--14b14------|--------------------------|-----------------14--13--14b|--
D|-------------------------14--|--------------------------|----------------------------|--
A|-----------------------------|--------------------------|----------------------------|--
E|-----------------------------|--------------------------|----------------------------|--

Stave 4:

E|-----------------------|--
B|--15--14--12-----------|--
G|--------------14--14v--|--
D|-----------------------|--
A|-----------------------|--
E|-----------------------|--

http://www.guitartabcreator.com
Guitar Tab Creator is intended to store guitar tab created through the tool. It currently does not support in-line text editing. Any text you place in here will be lost. If you need to comment on your tab, please use the "Tab Notes" section located below.