Sound will begin in 5 seconds

God Of Our Fathers music by George Warren - Metal v1 (h)=pinch harmonic the note after the (h) /1st stave is optional trumpet fanfare.

Chords
01234567891011121314151617181920212223
E
B
G
D
A
E
B
0 1 2 3 4 5 6 7 8 9 10 11 12 13 14 15 16 17 18 19 20 21 22 23
Song Science #1: How Pros Use 6 Chords to Write Hit Songs
(/) Slide Up  (\) Slide Down  (h) Hammer On  (p) Pull Off  (b) Bend (r) Release (v) Vibrato

Stave 1:

E|----------------------------------
B|----------------------------------
G|----------------------------------
D|--14--14--14--14--14--14--14--14--
A|--12--12--12--12--12--12--12--12--
E|----------------------------------

Stave 2:

E|--------------------------------
B|--------------------------------
G|--------------------------------
D|-----------------------------7--
A|--0--0--2h4v--5--4--0--0-----7--
E|--------------------------4--5--

Stave 3:

E|------------------------------------------
B|------------------------------------------
G|------------------------------------------
D|------------------------------------------
A|------------------------------------------
E|--9--9--10--12v--14--16--12--12--11--12v--

Stave 4:

E|-------------------------------------------
B|-------------------------------------------
G|-------------------------------------------
D|-------------------------------------------
A|--14--14--14--14--14-----------------------
E|--12--12--12--12--12--15--12--12--11--12v--

Stave 5:

E|-------------------------------------
B|-------------------------------------
G|-------------------------------------
D|-------------------------------------
A|----------------14--12--11--9--9--7--
E|--17h16h14--12--12--10--9---7--7--5--

http://www.guitartabcreator.com
Guitar Tab Creator is intended to store guitar tab created through the tool. It currently does not support in-line text editing. Any text you place in here will be lost. If you need to comment on your tab, please use the "Tab Notes" section located below.