Sound will begin in 5 seconds

All Hail The Power Of Jesus Name music by Oliver Holden - Metal v1, (h)=pinch harmonic the note after the (h).

Chords
01234567891011121314151617181920212223
E
B
G
D
A
E
B
0 1 2 3 4 5 6 7 8 9 10 11 12 13 14 15 16 17 18 19 20 21 22 23
Song Science #1: How Pros Use 6 Chords to Write Hit Songs
(/) Slide Up  (\) Slide Down  (h) Hammer On  (p) Pull Off  (b) Bend (r) Release (v) Vibrato

Stave 1:

E|--------------------------------------------------
B|--------------------------------------------------
G|--------------------------------------------------
D|--------7--7--9--11--9--7--9--11--9--7--11--9-----
A|-----0--5--5--7--9---7--5--7--9---7--5--9---7h5v--
E|--------------------------------------------------

Stave 2:

E|-----------------------------------------------------------------------
B|-----------------------------------------------------------------------
G|-----------------------------------------------------------------------
D|-----9--11--9--7--11--14--12--11--9--11--14--14--14--------------------
A|-----7--9---7--5--9---12--10--9---7--9---12--12--12--14v--12--11--12v--
E|-----------------------------------------------------------------------

Stave 3:

E|-------------------------------------------------------------------
B|-------------------------------------------------------------------
G|-------------------------------------------------------------------
D|--11--14--11--7--11--9--7--9--11--9--7------------11--12--9--9--7--
A|--9---12--9---5--9---7--5--7--9---7--5--12v--10v--9---10--7--7--5--
E|-------------------------------------------------------------------

http://www.guitartabcreator.com
Guitar Tab Creator is intended to store guitar tab created through the tool. It currently does not support in-line text editing. Any text you place in here will be lost. If you need to comment on your tab, please use the "Tab Notes" section located below.