Bronto Gtr 1, Part 1

Chords

01234567891011121314151617181920212223
E
B
G
D
A
E
B
0 1 2 3 4 5 6 7 8 9 10 11 12 13 14 15 16 17 18 19 20 21 22 23
(/) Slide Up  (\) Slide Down  (h) Hammer On  (p) Pull Off  (b) Bend (r) Release (v) Vibrato

"Verse"
E|--------------------------------
B|-----------7--------7-----------
G|--------------------------------
D|-----------6--------6-----------
A|-----------7--------7-----------
E|--0--0--0-----0--0--0--0--0--0--


"Chorus"/ Loud Part
E|-----------------
B|-----7------------
G|-----------------
D|------6----------
A|-------7--------
E|--0-----0-------


Part B
E|-----------------------------------------------------------------------------------
B|--3--------3--------3--------3------------2--------2--------5--------5-------------
G|-----0--------0--------0--------0------------1--------1--------4--------4----------
D|-----------------------------------------------------------------------------------
A|--2-----2--------2--------2--------2------------1--------1--------4--------4-------
E|-----------------------------------------------------------------------------------



E|-----------------------
B|--------3--3-----3--3--
G|--------4--4-----4--4--
D|--------4--4-----4--4--
A|--2--2--------2--------
E|-----------------------


[[],[],[],[],[],[]]

Member for

8 years 5 months
Submitted by sars02 on Wed, 2012-02-01 12:46