Sound will begin in 5 seconds

Enrique Iglesias

01234567891011121314151617181920212223
E
B
G
D
A
E
B
0 1 2 3 4 5 6 7 8 9 10 11 12 13 14 15 16 17 18 19 20 21 22 23
Song Science #1: How Pros Use 6 Chords to Write Hit Songs
(/) Slide Up  (\) Slide Down  (h) Hammer On  (p) Pull Off  (b) Bend (r) Release (v) Vibrato

Stave 1:

E|--0--2--3--2--0--3--------2--3p2--0--
B|-------------------------------------
G|-------------------------------------
D|-------------------------------------
A|-------------------------------------
E|-------------------------------------

Stave 2:

E|--0--2--3--2--0--3-----------0-----------------3--3p2--
B|--------------------3--3--3-----3--3--0--3--3----------
G|-------------------------------------------------------
D|-------------------------------------------------------
A|-------------------------------------------------------
E|-------------------------------------------------------

Stave 3:

E|--3--5--7--5--3--7----5--5-----7----5--3--3--
B|--5--7--8--7--5--8----7--7--8--8----7--5--5--
G|---------------------------------------------
D|---------------------------------------------
A|---------------------------------------------
E|---------------------------------------------

Stave 4:

E|--8--8--8--10--8--10--8p0----7--7--------
B|--8--8--8--8---8--8----------------------
G|----------------------------7--7--7--7--
D|----------------------------------9--9--
A|----------------------------------------
E|----------------------------------------

Stave 5:

E|----8---8---7--7--5--5----3--3--------
B|----10--10--8--8--7--7----3--3--3--3--
G|--------------------------------2--2--
D|--------------------------------------
A|--------------------------------------
E|--------------------------------------

Stave 6:

E|----
B|----
G|----
D|----
A|----
E|----

http://www.guitartabcreator.com
Guitar Tab Creator is intended to store guitar tab created through the tool. It currently does not support in-line text editing. Any text you place in here will be lost. If you need to comment on your tab, please use the "Tab Notes" section located below.