la

Chords

01234567891011121314151617181920212223
E
B
G
D
A
E
B
0 1 2 3 4 5 6 7 8 9 10 11 12 13 14 15 16 17 18 19 20 21 22 23
(/) Slide Up  (\) Slide Down  (h) Hammer On  (p) Pull Off  (b) Bend (r) Release (v) Vibrato

E|---------------------------------------------------------------------
B|--------------13--15--15b17--15b17--15b17r15p13--15--15--13--13--15--
G|--14--14--14---------------------------------------------------------
D|---------------------------------------------------------------------
A|---------------------------------------------------------------------
E|---------------------------------------------------------------------



E|---------------------------------------------------------------------
B|----------13--15--17--17b18--17--15--17--15h17p15------13b15r13------
G|--14--14-------------------------------------------14------------14--
D|---------------------------------------------------------------------
A|---------------------------------------------------------------------
E|---------------------------------------------------------------------



E|-----------------------------------------------------------------------------------------
B|-------------------------------------------15b17--17-------------------------------------
G|--16b17r16p14--17b19r17--14--16b17r16--14-------------14--12--17------12-----------------
D|------------------------------------------------------------------15------14--14b15--14--
A|-----------------------------------------------------------------------------------------
E|-----------------------------------------------------------------------------------------



E|----------------------------------------------------------
B|------------------------------------13b15--13--15b17--15--
G|----------------------------12--14------------------------
D|--14p12\10--10--12--12--14--------------------------------
A|----------------------------------------------------------
E|----------------------------------------------------------



E|------------------------------------------------------------------
B|--15b17--15b17--15b17--15b17--15b18--15b17r15--13------13--15b17--
G|---------------------------------------------------14-------------
D|------------------------------------------------------------------
A|------------------------------------------------------------------
E|------------------------------------------------------------------



E|-----------------------------------15----------15b17--15--13---------13--15----------
B|--15b18--15b17r15--13------13--13------13--13-----------------15b17----------15--13--
G|-----------------------14------------------------------------------------------------
D|-------------------------------------------------------------------------------------
A|-------------------------------------------------------------------------------------
E|-------------------------------------------------------------------------------------



E|-------------------------------------------------------
B|--12b13--12------10--12b13--12--12------10--13b15--13--
G|-------------12---------------------12-----------------
D|-------------------------------------------------------
A|-------------------------------------------------------
E|-------------------------------------------------------
							http://www.guitartabcreator.com
[[],[],[],[],[],[]]

Member for

8 years 9 months
Submitted by samuelkim on Mon, 2011-09-05 04:32