Sound will begin in 5 seconds

summer camp

01234567891011121314151617181920212223
E
B
G
D
A
E
B
0 1 2 3 4 5 6 7 8 9 10 11 12 13 14 15 16 17 18 19 20 21 22 23
Song Science #1: How Pros Use 6 Chords to Write Hit Songs
(/) Slide Up  (\) Slide Down  (h) Hammer On  (p) Pull Off  (b) Bend (r) Release (v) Vibrato

Stave 1:

E|----------12----------12----------------------------------
B|--15--15------14--14------12--12--12------12--14--12------
G|--------------------------------------14--------------14--
D|----------------------------------------------------------
A|----------------------------------------------------------
E|----------------------------------------------------------

Stave 2:

E|------------------------------------------15--17--
B|--17--17--15--17--17--15--17--13--15--17----------
G|--------------------------------------------------
D|--------------------------------------------------
A|--------------------------------------------------
E|--------------------------------------------------

Stave 3:

E|--------------14------------------|-------------------------------
B|--14------17--------------17--14--|-------------------------------
G|------16--------------14----------|------14-----------------------
D|------------------16--------------|--16---------------------------
A|----------------------------------|-------------------------------
E|----------------------------------|-------------------------------

Stave 4:

E|--------------14------------------
B|--14------17--------------17--14--
G|------16--------------14----------
D|------------------16--------------
A|----------------------------------
E|----------------------------------

Stave 5:

E|-----7------14-----9-----10--|-----------0--------------0--------------0--------------0-----
B|-----------------------------|-----7--------7-----7--------7-----5--------5-----8--------8--
G|-----------------------------|--------7--------------7--------------6--------------9--------
D|--5-----12------7-----7------|--9--------------0--------------7--------------9--------------
A|-----------------------------|--------------------------------------------------------------
E|-----------------------------|--------------------------------------------------------------

Stave 6:

E|-----10------12------14------15-----9-----10-----7--
B|----------------------------------------------------
G|----------------------------------------------------
D|--9------11------12------12------7-----7------5-----
A|----------------------------------------------------
E|----------------------------------------------------

Stave 7:

E|--------------------7---------
B|--------7--8--------------10--
G|--9--9--------7--7-----7------
D|------------------------------
A|------------------------------
E|------------------------------

Stave 8:

E|--------------------------------------------|-----------------------------
B|--7--7--5--5--------------------5--5--7--7--|-----------------------------
G|--------------6--6--4--4--6--6--------------|--9--11--9--11---------------
D|--------------------------------------------|----------------9--9--11--7--
A|--------------------------------------------|-----------------------------
E|--------------------------------------------|-----------------------------

Stave 9:

E|---------------------------------------------|---------9---------7----------14------14----------12------12--
B|--10--12--15--14--9--10--17--15--14--12--10--|----------------------12--14------14------14--12------12------
G|---------------------------------------------|--9--11-----11--9---------------------------------------------
D|--7---9---12--11--6--7---14--12--11--9---7---|--------------------------------------------------------------
A|---------------------------------------------|--------------------------------------------------------------
E|---------------------------------------------|--------------------------------------------------------------

http://www.guitartabcreator.com
Guitar Tab Creator is intended to store guitar tab created through the tool. It currently does not support in-line text editing. Any text you place in here will be lost. If you need to comment on your tab, please use the "Tab Notes" section located below.