Sound will begin in 5 seconds

Juho Läksyt 15.15

01234567891011121314151617181920212223
E
B
G
D
A
E
B
0 1 2 3 4 5 6 7 8 9 10 11 12 13 14 15 16 17 18 19 20 21 22 23
(/) Slide Up  (\) Slide Down  (h) Hammer On  (p) Pull Off  (b) Bend (r) Release (v) Vibrato

Stave 1:

E|----------------------|----------------------|----------17--19--20--|--
B|----------------------|----------------------|--17--18--------------|--
G|----------------------|----------14--16--17--|----------------------|--
D|----------------------|--14--15--------------|----------------------|--
A|----------12--14--15--|----------------------|----------------------|--
E|--12--13--------------|----------------------|----------------------|--

Stave 2:

E|--19--17--16--------------|------------------|------------------------------|--
B|--------------18--17--15--|------------------|------------------------------|--
G|--------------------------|--17--16--14--13--|------------------------------|--
D|--------------------------|------------------|--15--14--12------------------|--
A|--------------------------|------------------|--------------15--14--12--11--|--
E|--------------------------|------------------|------------------------------|--

Stave 3:

E|--13--10--12--13--12--10--------------------------|--
B|--------------------------13--10--12--13--12--10--|--
G|--------------------------------------------------|--
D|--------------------------------------------------|--
A|--------------------------------------------------|--
E|--------------------------------------------------|--

http://www.guitartabcreator.com
Guitar Tab Creator is intended to store guitar tab created through the tool. It currently does not support in-line text editing. Any text you place in here will be lost. If you need to comment on your tab, please use the "Tab Notes" section located below.