Sound will begin in 5 seconds

OMAM - KALH

01234567891011121314151617181920212223
E
B
G
D
A
E
B
0 1 2 3 4 5 6 7 8 9 10 11 12 13 14 15 16 17 18 19 20 21 22 23
Song Science #1: How Pros Use 6 Chords to Write Hit Songs
(/) Slide Up  (\) Slide Down  (h) Hammer On  (p) Pull Off  (b) Bend (r) Release (v) Vibrato

Stave 1:

E|-0---------------0---------------0-------------------------0-0-----
B|---0-3-------3-----0-3-------3-----0-3-------3-------3-0---3---3-0-
G|---------0---------------0---------------0-----------------0-------
D|-2-----2---2---2-2-----2---2---2-2-----2---2---2-0h2-----2---------
A|-------------------------------------------------------------------
E|-------------------------------------------------------------------

Stave 2:

E|-0---------------0---------------0---------------0---------------
B|---0-3-------3-----0-3-------3-----0-3-------3-----0-3-------3---
G|---------0---------------0---------------0---------------0-------
D|-2-----2---2---2-2-----2---2---2-2-----2---2---2-2-----2---2---2-
A|-----------------------------------------------------------------
E|-----------------------------------------------------------------

Stave 3:

E|-0---------------3---------------5---------------0---------------0-
B|---0-3-------------0---------------0---------------0-3-------3---0-
G|---------0---0-------0-------0-------0-------0-----------0-------0-
D|-2-----2---2-------------2---------------4-------2-----2---2---2-2p
A|---------------0-3-----3---3---3-5-----5---5---0-------------------
E|-------------------------------------------------------------------

Stave 4:

E|-3---------------5---------------2---------------3-----------------
B|---0---------------0---------------0---------------0---------------
G|-----0-------0-------0-------0-------2-------0-------0-------0-----
D|---------2---------------4---------------0---------------2---------
A|-3-----3---3---3-5-----5---5---0-2-----2---2---2-3-----3---3---3---
E|-------------------------------------------------------------------

Stave 5:

E|-3---------------5---------------0-
B|---0---------------0-------------0-
G|-----0-------0-------0-------0---0-
D|---------2---------------4-------2-
A|-3-----3---3---3-5-----5---5---5---
E|-----------------------------------

Stave 6:

E|-3---------------5---------------0---------------0---------------
B|---0---------------0---------------0-3-------3-----0-3-----------
G|-----0-------0-------0-------0-----------0---------------0---0---
D|---------2---------------4-------2-----2---2---2-2-----2---2---2-
A|-3-----3---3---3-5-----5---5---5---------------------------------
E|-----------------------------------------------------------------

Stave 7:

E|-3---------------5---------------0---------------0---------------
B|---0---------------0---------------0-3-------3-----0-3-----------
G|-----0-------0-------0-------0-----------0---------------0---0---
D|---------2---------------4-------2-----2---2---2-2-----2---2---2-
A|-3-----3---3---3-5-----5---5---5---------------------------------
E|-----------------------------------------------------------------

Stave 8:

E|-3---------------5---------------2---------------3---------------
B|---0---------------0---------------0---------------0-------------
G|-----0-------0-------0-------0-------2-------0-------0-------0---
D|---------2---------------4---------------0---------------2-------
A|-3-----3---3---3-5-----5---5---5-2-----2---2---2-3-----3---3---3-
E|-----------------------------------------------------------------

Stave 9:

E|-3---------------5---------------0-
B|---0---------------0-------------0-
G|-----0-------0-------0-------0---0-
D|---------2---------------4-------2-
A|-3-----3---3---3-5-----5---5---5---
E|-----------------------------------

http://www.guitartabcreator.com
Guitar Tab Creator is intended to store guitar tab created through the tool. It currently does not support in-line text editing. Any text you place in here will be lost. If you need to comment on your tab, please use the "Tab Notes" section located below.