Sound will begin in 5 seconds

E Major Parallels

Chords
01234567891011121314151617181920212223
E
B
G
D
A
E
B
0 1 2 3 4 5 6 7 8 9 10 11 12 13 14 15 16 17 18 19 20 21 22 23
Song Science #1: How Pros Use 6 Chords to Write Hit Songs
(/) Slide Up  (\) Slide Down  (h) Hammer On  (p) Pull Off  (b) Bend (r) Release (v) Vibrato

Stave 1:

E|--0--2--4--5--7--9---11--12--14--16--18--
B|--2--4--5--7--9--10--12--14--16--17--19--
G|-----------------------------------------
D|-----------------------------------------
A|-----------------------------------------
E|-----------------------------------------

Stave 2:

E|--------------------------------------------
B|--0--2--4--5--7--9--10--12--14--16--17--19--
G|--1--2--4--6--8--9--11--13--14--16--18--20--
D|--------------------------------------------
A|--------------------------------------------
E|--------------------------------------------

Stave 3:

E|--0--2--4--5--7--9--11--12--14--16--17--
B|----------------------------------------
G|--1--2--4--6--8--9--11--13--14--16--19--
D|----------------------------------------
A|----------------------------------------
E|----------------------------------------

Stave 4:

E|----------------------------------------
B|--0--2--4--5--7--9--10--12--14--16--17--
G|----------------------------------------
D|--1--2--4--6--7--9--11--13--14--16--18--
A|----------------------------------------
E|----------------------------------------

Stave 5:

E|-----------------------------------------
B|-----------------------------------------
G|--1--2--4--6--8--9---11--13--14--16--18--
D|--2--4--6--7--9--11--13--14--16--18--19--
A|-----------------------------------------
E|-----------------------------------------

Stave 6:

E|-----------------------------------------
B|-----------------------------------------
G|--1--2--4--6--8--9---11--13--14--16--18--
D|-----------------------------------------
A|--2--4--6--7--9--11--13--14--16--18--19--
E|-----------------------------------------

Stave 7:

E|--------------------------------------------
B|--------------------------------------------
G|--1--2--4--6--8--9--11--13--14--16--18--20--
D|--------------------------------------------
A|--------------------------------------------
E|--0--2--4--5--7--9--11--12--14--16--17--19--

http://www.guitartabcreator.com
Guitar Tab Creator is intended to store guitar tab created through the tool. It currently does not support in-line text editing. Any text you place in here will be lost. If you need to comment on your tab, please use the "Tab Notes" section located below.